  0
SECTION
  2
HEADER
  9
$ACADVER
  1
AC1015
  9
$ACADMAINTVER
 70
     6
  9
$DWGCODEPAGE
  3
ANSI_1254
  9
$INSBASE
 10
0.0
 20
0.0
 30
0.0
  9
$EXTMIN
 10
0.0
 20
0.0
 30
0.0
  9
$EXTMAX
 10
279.4
 20
215.9
 30
0.0
  9
$LIMMIN
 10
0.0
 20
0.0
  9
$LIMMAX
 10
279.4
 20
215.9
  9
$ORTHOMODE
 70
     0
  9
$REGENMODE
 70
     1
  9
$FILLMODE
 70
     1
  9
$QTEXTMODE
 70
     0
  9
$MIRRTEXT
 70
     1
  9
$LTSCALE
 40
1.0
  9
$ATTMODE
 70
     1
  9
$TEXTSIZE
 40
3.5
  9
$TRACEWID
 40
1.0
  9
$TEXTSTYLE
  7
Standard
  9
$CLAYER
  8
0
  9
$CELTYPE
  6
ByLayer
  9
$CECOLOR
 62
   256
  9
$CELTSCALE
 40
1.0
  9
$DISPSILH
 70
     0
  9
$DIMSCALE
 40
1.0
  9
$DIMASZ
 40
3.5
  9
$DIMEXO
 40
1.0
  9
$DIMDLI
 40
3.75
  9
$DIMRND
 40
0.0
  9
$DIMDLE
 40
0.0
  9
$DIMEXE
 40
1.0
  9
$DIMTP
 40
0.0
  9
$DIMTM
 40
0.0
  9
$DIMTXT
 40
3.5
  9
$DIMCEN
 40
2.5
  9
$DIMTSZ
 40
0.0
  9
$DIMTOL
 70
     0
  9
$DIMLIM
 70
     0
  9
$DIMTIH
 70
     1
  9
$DIMTOH
 70
     1
  9
$DIMSE1
 70
     0
  9
$DIMSE2
 70
     0
  9
$DIMTAD
 70
     1
  9
$DIMZIN
 70
     0
  9
$DIMBLK
  1

  9
$DIMASO
 70
     1
  9
$DIMSHO
 70
     1
  9
$DIMPOST
  1

  9
$DIMAPOST
  1

  9
$DIMALT
 70
     0
  9
$DIMALTD
 70
     3
  9
$DIMALTF
 40
0.0393700787
  9
$DIMLFAC
 40
1.0
  9
$DIMTOFL
 70
     1
  9
$DIMTVP
 40
0.0
  9
$DIMTIX
 70
     0
  9
$DIMSOXD
 70
     0
  9
$DIMSAH
 70
     0
  9
$DIMBLK1
  1

  9
$DIMBLK2
  1

  9
$DIMSTYLE
  2
ISO-25
  9
$DIMCLRD
 70
     0
  9
$DIMCLRE
 70
     0
  9
$DIMCLRT
 70
     0
  9
$DIMTFAC
 40
1.0
  9
$DIMGAP
 40
1.524
  9
$DIMJUST
 70
     0
  9
$DIMSD1
 70
     0
  9
$DIMSD2
 70
     0
  9
$DIMTOLJ
 70
     0
  9
$DIMTZIN
 70
     0
  9
$DIMALTZ
 70
     0
  9
$DIMALTTZ
 70
     0
  9
$DIMUPT
 70
     0
  9
$DIMDEC
 70
     2
  9
$DIMTDEC
 70
     2
  9
$DIMALTU
 70
     2
  9
$DIMALTTD
 70
     3
  9
$DIMTXSTY
  7
Standard
  9
$DIMAUNIT
 70
     0
  9
$DIMADEC
 70
     2
  9
$DIMALTRND
 40
0.0
  9
$DIMAZIN
 70
     0
  9
$DIMDSEP
 70
    44
  9
$DIMATFIT
 70
     3
  9
$DIMFRAC
 70
     0
  9
$DIMLDRBLK
  1

  9
$DIMLUNIT
 70
     2
  9
$DIMLWD
 70
    -2
  9
$DIMLWE
 70
    -2
  9
$DIMTMOVE
 70
     0
  9
$LUNITS
 70
     2
  9
$LUPREC
 70
     2
  9
$SKETCHINC
 40
1.0
  9
$FILLETRAD
 40
10.0
  9
$AUNITS
 70
     0
  9
$AUPREC
 70
     2
  9
$MENU
  1
.
  9
$ELEVATION
 40
0.0
  9
$PELEVATION
 40
0.0
  9
$THICKNESS
 40
0.0
  9
$LIMCHECK
 70
     0
  9
$CHAMFERA
 40
0.0
  9
$CHAMFERB
 40
0.0
  9
$CHAMFERC
 40
0.0
  9
$CHAMFERD
 40
0.0
  9
$SKPOLY
 70
     0
  9
$TDCREATE
 40
2459741.607926736
  9
$TDUCREATE
 40
2459741.482926736
  9
$TDUPDATE
 40
2459741.60792691
  9
$TDUUPDATE
 40
2459741.48292691
  9
$TDINDWG
 40
0.0000000116
  9
$TDUSRTIMER
 40
0.0000000116
  9
$USRTIMER
 70
     1
  9
$ANGBASE
 50
0.0
  9
$ANGDIR
 70
     0
  9
$PDMODE
 70
     0
  9
$PDSIZE
 40
-1.0
  9
$PLINEWID
 40
0.0
  9
$SPLFRAME
 70
     0
  9
$SPLINETYPE
 70
     6
  9
$SPLINESEGS
 70
     8
  9
$HANDSEED
  5
103
  9
$SURFTAB1
 70
     6
  9
$SURFTAB2
 70
     6
  9
$SURFTYPE
 70
     6
  9
$SURFU
 70
     6
  9
$SURFV
 70
     6
  9
$UCSBASE
  2

  9
$UCSNAME
  2

  9
$UCSORG
 10
0.0
 20
0.0
 30
0.0
  9
$UCSXDIR
 10
1.0
 20
0.0
 30
0.0
  9
$UCSYDIR
 10
0.0
 20
1.0
 30
0.0
  9
$UCSORTHOREF
  2

  9
$UCSORTHOVIEW
 70
     0
  9
$UCSORGTOP
 10
0.0
 20
0.0
 30
0.0
  9
$UCSORGBOTTOM
 10
0.0
 20
0.0
 30
0.0
  9
$UCSORGLEFT
 10
0.0
 20
0.0
 30
0.0
  9
$UCSORGRIGHT
 10
0.0
 20
0.0
 30
0.0
  9
$UCSORGFRONT
 10
0.0
 20
0.0
 30
0.0
  9
$UCSORGBACK
 10
0.0
 20
0.0
 30
0.0
  9
$PUCSBASE
  2

  9
$PUCSNAME
  2

  9
$PUCSORG
 10
0.0
 20
0.0
 30
0.0
  9
$PUCSXDIR
 10
1.0
 20
0.0
 30
0.0
  9
$PUCSYDIR
 10
0.0
 20
1.0
 30
0.0
  9
$PUCSORTHOREF
  2

  9
$PUCSORTHOVIEW
 70
     0
  9
$PUCSORGTOP
 10
0.0
 20
0.0
 30
0.0
  9
$PUCSORGBOTTOM
 10
0.0
 20
0.0
 30
0.0
  9
$PUCSORGLEFT
 10
0.0
 20
0.0
 30
0.0
  9
$PUCSORGRIGHT
 10
0.0
 20
0.0
 30
0.0
  9
$PUCSORGFRONT
 10
0.0
 20
0.0
 30
0.0
  9
$PUCSORGBACK
 10
0.0
 20
0.0
 30
0.0
  9
$USERI1
 70
     0
  9
$USERI2
 70
     0
  9
$USERI3
 70
     0
  9
$USERI4
 70
     0
  9
$USERI5
 70
     0
  9
$USERR1
 40
0.0
  9
$USERR2
 40
0.0
  9
$USERR3
 40
0.0
  9
$USERR4
 40
0.0
  9
$USERR5
 40
0.0
  9
$WORLDVIEW
 70
     1
  9
$SHADEDGE
 70
     3
  9
$SHADEDIF
 70
    70
  9
$TILEMODE
 70
     1
  9
$MAXACTVP
 70
    64
  9
$PINSBASE
 10
0.0
 20
0.0
 30
0.0
  9
$PLIMCHECK
 70
     0
  9
$PEXTMIN
 10
1.0000000000E+20
 20
1.0000000000E+20
 30
1.0000000000E+20
  9
$PEXTMAX
 10
-1.0000000000E+20
 20
-1.0000000000E+20
 30
-1.0000000000E+20
  9
$PLIMMIN
 10
0.0
 20
0.0
  9
$PLIMMAX
 10
420.0
 20
297.0
  9
$UNITMODE
 70
     0
  9
$VISRETAIN
 70
     1
  9
$PLINEGEN
 70
     0
  9
$PSLTSCALE
 70
     1
  9
$TREEDEPTH
 70
  3020
  9
$CMLSTYLE
  2
Standard
  9
$CMLJUST
 70
     0
  9
$CMLSCALE
 40
20.0
  9
$PROXYGRAPHICS
 70
     1
  9
$MEASUREMENT
 70
     1
  9
$CELWEIGHT
370
    -1
  9
$ENDCAPS
280
     0
  9
$JOINSTYLE
280
     0
  9
$LWDISPLAY
290
     1
  9
$INSUNITS
 70
     4
  9
$HYPERLINKBASE
  1

  9
$STYLESHEET
  1

  9
$XEDIT
290
     1
  9
$CEPSNTYPE
380
     0
  9
$PSTYLEMODE
290
     1
  9
$FINGERPRINTGUID
  2
{614d41b9-8c1b-4626-bc7c-43f6cfbb0907}
  9
$VERSIONGUID
  2
{FAEB1C32-E019-11D5-929B-00C0DF256EC4}
  9
$EXTNAMES
290
     1
  9
$PSVPSCALE
 40
0.0
  9
$OLESTARTUP
290
     0
  0
ENDSEC
  0
SECTION
  2
CLASSES
  0
CLASS
  1
ACDBDICTIONARYWDFLT
  2
AcDbDictionaryWithDefault
  3
ObjectDBX Classes
 90
        0
280
     0
281
     0
  0
CLASS
  1
VISUALSTYLE
  2
AcDbVisualStyle
  3
ObjectDBX Classes
 90
     4095
280
     0
281
     0
  0
CLASS
  1
MATERIAL
  2
AcDbMaterial
  3
ObjectDBX Classes
 90
     1153
280
     0
281
     0
  0
CLASS
  1
SCALE
  2
AcDbScale
  3
ObjectDBX Classes
 90
     1153
280
     0
281
     0
  0
CLASS
  1
TABLESTYLE
  2
AcDbTableStyle
  3
ObjectDBX Classes
 90
     4095
280
     0
281
     0
  0
CLASS
  1
MLEADERSTYLE
  2
AcDbMLeaderStyle
  3
ACDB_MLEADERSTYLE_CLASS
 90
     4095
280
     0
281
     0
  0
CLASS
  1
SUN
  2
AcDbSun
  3
SCENEOE
 90
     1153
280
     0
281
     0
  0
CLASS
  1
ACDBPLACEHOLDER
  2
AcDbPlaceHolder
  3
ObjectDBX Classes
 90
        0
280
     0
281
     0
  0
CLASS
  1
LAYOUT
  2
AcDbLayout
  3
ObjectDBX Classes
 90
        0
280
     0
281
     0
  0
ENDSEC
  0
SECTION
  2
TABLES
  0
TABLE
  2
VPORT
  5
8
330
0
100
AcDbSymbolTable
 70
     1
  0
VPORT
  5
29
330
8
100
AcDbSymbolTableRecord
100
AcDbViewportTableRecord
  2
*Active
 70
     0
 10
0.0
 20
0.0
 11
1.0
 21
1.0
 12
139.7
 22
107.95
 13
0.0
 23
0.0
 14
10.0
 24
10.0
 15
10.0
 25
10.0
 16
0.0
 26
0.0
 36
1.0
 17
0.0
 27
0.0
 37
0.0
 40
215.9
 41
1.2941176471
 42
50.0
 43
0.0
 44
0.0
 50
0.0
 51
0.0
 71
     0
 72
  2000
 73
     1
 74
     3
 75
     0
 76
     0
 77
     0
 78
     0
281
     0
 65
     1
110
0.0
120
0.0
130
0.0
111
1.0
121
0.0
131
0.0
112
0.0
122
1.0
132
0.0
 79
     0
146
0.0
  0
ENDTAB
  0
TABLE
  2
LTYPE
  5
5
330
0
100
AcDbSymbolTable
 70
     6
  0
LTYPE
  5
14
330
5
100
AcDbSymbolTableRecord
100
AcDbLinetypeTableRecord
  2
ByBlock
 70
     0
  3

 72
    65
 73
     0
 40
0.0
  0
LTYPE
  5
15
330
5
100
AcDbSymbolTableRecord
100
AcDbLinetypeTableRecord
  2
ByLayer
 70
     0
  3

 72
    65
 73
     0
 40
0.0
  0
LTYPE
  5
16
330
5
100
AcDbSymbolTableRecord
100
AcDbLinetypeTableRecord
  2
Continuous
 70
     0
  3
Solid line
 72
    65
 73
     0
 40
0.0
  0
LTYPE
  5
6E
330
5
100
AcDbSymbolTableRecord
100
AcDbLinetypeTableRecord
  2
HIDDEN
 70
     0
  3
Hidden __ __ __ __ __ __ __ __ __ __ __ __ __ __
 72
    65
 73
     2
 40
1.905
 49
1.27
 74
     0
 49
-0.635
 74
     0
  0
LTYPE
  5
6F
330
5
100
AcDbSymbolTableRecord
100
AcDbLinetypeTableRecord
  2
PHANTOM
 70
     0
  3
Phantom ______  __  __  ______  __  __  ______
 72
    65
 73
     6
 40
12.7
 49
6.35
 74
     0
 49
-1.27
 74
     0
 49
1.27
 74
     0
 49
-1.27
 74
     0
 49
1.27
 74
     0
 49
-1.27
 74
     0
  0
LTYPE
  5
70
330
5
100
AcDbSymbolTableRecord
100
AcDbLinetypeTableRecord
  2
CENTER
 70
     0
  3
Center ____ _ ____ _ ____ _ ____ _ ____ _ ____
 72
    65
 73
     4
 40
10.16
 49
6.35
 74
     0
 49
-1.27
 74
     0
 49
1.27
 74
     0
 49
-1.27
 74
     0
  0
LTYPE
  5
71
330
5
100
AcDbSymbolTableRecord
100
AcDbLinetypeTableRecord
  2
CENTERX2
 70
     0
  3
Center (2x) ________  __  ________  __  _____
 72
    65
 73
     4
 40
20.32
 49
12.7
 74
     0
 49
-2.54
 74
     0
 49
2.54
 74
     0
 49
-2.54
 74
     0
  0
LTYPE
  5
72
330
5
100
AcDbSymbolTableRecord
100
AcDbLinetypeTableRecord
  2
DOT2
 70
     0
  3
Dot (.5x) ........................................
 72
    65
 73
     2
 40
0.635
 49
0.0
 74
     0
 49
-0.635
 74
     0
  0
ENDTAB
  0
TABLE
  2
LAYER
  5
2
330
0
100
AcDbSymbolTable
 70
    17
  0
LAYER
  5
10
330
2
100
AcDbSymbolTableRecord
100
AcDbLayerTableRecord
  2
0
 70
     0
 62
     7
  6
Continuous
370
    -3
390
F
  0
LAYER
  5
73
330
2
100
AcDbSymbolTableRecord
100
AcDbLayerTableRecord
  2
FORMAT
 70
     0
 62
     7
  6
Continuous
370
    -3
390
F
  0
LAYER
  5
74
330
2
100
AcDbSymbolTableRecord
100
AcDbLayerTableRecord
  2
YARDIMCI_GEOMETRI
 70
     0
 62
    -6
  6
Continuous
290
     0
370
    -3
390
F
  0
LAYER
  5
75
330
2
100
AcDbSymbolTableRecord
100
AcDbLayerTableRecord
  2
SAYFA_CERCEVESI
 70
     0
 62
     7
  6
Continuous
370
    25
390
F
  0
LAYER
  5
76
330
2
100
AcDbSymbolTableRecord
100
AcDbLayerTableRecord
  2
ANTET
 70
     0
 62
     7
  6
Continuous
370
    -3
390
F
  0
LAYER
  5
77
330
2
100
AcDbSymbolTableRecord
100
AcDbLayerTableRecord
  2
OLCU
 70
     0
 62
   150
  6
Continuous
370
    -3
390
F
  0
LAYER
  5
78
330
2
100
AcDbSymbolTableRecord
100
AcDbLayerTableRecord
  2
METIN
 70
     0
 62
    96
  6
Continuous
370
    -3
390
F
  0
LAYER
  5
79
330
2
100
AcDbSymbolTableRecord
100
AcDbLayerTableRecord
  2
BALON
 70
     0
 62
     5
  6
Continuous
370
    -3
390
F
  0
LAYER
  5
7A
330
2
100
AcDbSymbolTableRecord
100
AcDbLayerTableRecord
  2
VURGU
 70
     0
 62
     7
  6
Continuous
370
    -3
390
F
  0
LAYER
  5
7B
330
2
100
AcDbSymbolTableRecord
100
AcDbLayerTableRecord
  2
SILIK
 70
     0
 62
     7
  6
Continuous
370
    -3
390
F
  0
LAYER
  5
7C
330
2
100
AcDbSymbolTableRecord
100
AcDbLayerTableRecord
  2
MODEL
 70
     0
 62
     7
  6
Continuous
370
    -3
390
F
  0
LAYER
  5
7D
330
2
100
AcDbSymbolTableRecord
100
AcDbLayerTableRecord
  2
DETAYLANDıRMA
 70
     0
 62
   190
  6
Continuous
370
    -3
390
F
  0
LAYER
  5
7E
330
2
100
AcDbSymbolTableRecord
100
AcDbLayerTableRecord
  2
TOLERANS
 70
     0
 62
   230
  6
Continuous
370
    -3
390
F
  0
LAYER
  5
7F
330
2
100
AcDbSymbolTableRecord
100
AcDbLayerTableRecord
  2
MERKEZ_CIZGILERI
 70
     0
 62
    30
  6
Continuous
370
    -3
390
F
  0
LAYER
  5
80
330
2
100
AcDbSymbolTableRecord
100
AcDbLayerTableRecord
  2
KESIT-DETAY_CIZGILERI
 70
     0
 62
     7
  6
Continuous
370
    -3
390
F
  0
LAYER
  5
81
330
2
100
AcDbSymbolTableRecord
100
AcDbLayerTableRecord
  2
\U+041E\U+0421\U+0415\U+0412\U+042B\U+0415
 70
     0
 62
     7
  6
Continuous
370
    -3
390
F
  0
LAYER
  5
82
330
2
100
AcDbSymbolTableRecord
100
AcDbLayerTableRecord
  2
\U+0412\U+041E\U+0414\U+042F\U+041D\U+042B\U+0415_\U+0417\U+041D\U+0410\U+041A\U+0418
 70
     0
 62
    11
  6
Continuous
370
    -3
390
F
  0
ENDTAB
  0
TABLE
  2
STYLE
  5
3
330
0
100
AcDbSymbolTable
 70
     1
  0
STYLE
  5
11
330
3
100
AcDbSymbolTableRecord
100
AcDbTextStyleTableRecord
  2
Standard
 70
     0
 40
0.0
 41
1.0
 50
0.0
 71
     0
 42
3.5
  3
txt
  4

  0
ENDTAB
  0
TABLE
  2
VIEW
  5
6
330
0
100
AcDbSymbolTable
 70
     0
  0
ENDTAB
  0
TABLE
  2
UCS
  5
7
330
0
100
AcDbSymbolTable
 70
     0
  0
ENDTAB
  0
TABLE
  2
APPID
  5
9
330
0
100
AcDbSymbolTable
 70
     1
  0
APPID
  5
12
330
9
100
AcDbSymbolTableRecord
100
AcDbRegAppTableRecord
  2
ACAD
 70
     0
  0
ENDTAB
  0
TABLE
  2
DIMSTYLE
  5
A
330
0
100
AcDbSymbolTable
 70
     1
100
AcDbDimStyleTable
  0
DIMSTYLE
105
27
330
A
100
AcDbSymbolTableRecord
100
AcDbDimStyleTableRecord
  2
ISO-25
 70
     0
 41
2.5
 42
0.625
 43
3.75
 44
1.25
 73
     0
 74
     0
 77
     1
 78
     8
140
2.5
141
2.5
143
0.0393700787
147
0.625
171
     3
172
     1
178
     0
271
     2
272
     2
274
     3
278
    44
283
     0
284
     8
340
11
  0
ENDTAB
  0
TABLE
  2
BLOCK_RECORD
  5
1
330
0
100
AcDbSymbolTable
 70
     5
  0
BLOCK_RECORD
  5
1F
330
1
100
AcDbSymbolTableRecord
100
AcDbBlockTableRecord
  2
*Model_Space
340
22
  0
BLOCK_RECORD
  5
1B
330
1
100
AcDbSymbolTableRecord
100
AcDbBlockTableRecord
  2
*Paper_Space
340
1E
  0
BLOCK_RECORD
  5
23
330
1
100
AcDbSymbolTableRecord
100
AcDbBlockTableRecord
  2
*Paper_Space0
340
26
  0
BLOCK_RECORD
  5
8C
330
1
100
AcDbSymbolTableRecord
100
AcDbBlockTableRecord
  2
SW_CENTERMARKSYMBOL_0
340
0
102
{BLKREFS
331
97
102
}
  0
BLOCK_RECORD
  5
AA
330
1
100
AcDbSymbolTableRecord
100
AcDbBlockTableRecord
  2
SW_CENTERMARKSYMBOL_1
340
0
102
{BLKREFS
331
B5
102
}
  0
BLOCK_RECORD
  5
DA
330
1
100
AcDbSymbolTableRecord
100
AcDbBlockTableRecord
  2
SW_CENTERMARKSYMBOL_2
340
0
102
{BLKREFS
331
E5
102
}
  0
BLOCK_RECORD
  5
E6
330
1
100
AcDbSymbolTableRecord
100
AcDbBlockTableRecord
  2
SW_CENTERMARKSYMBOL_3
340
0
102
{BLKREFS
331
F1
102
}
  0
ENDTAB
  0
ENDSEC
  0
SECTION
  2
BLOCKS
  0
BLOCK
  5
20
330
1F
100
AcDbEntity
  8
0
100
AcDbBlockBegin
  2
*Model_Space
 70
     0
 10
0.0
 20
0.0
 30
0.0
  3
*Model_Space
  1

  0
ENDBLK
  5
21
330
1F
100
AcDbEntity
  8
0
100
AcDbBlockEnd
  0
BLOCK
  5
1C
330
1B
100
AcDbEntity
 67
     1
  8
0
100
AcDbBlockBegin
  2
*Paper_Space
 70
     0
 10
0.0
 20
0.0
 30
0.0
  3
*Paper_Space
  1

  0
ENDBLK
  5
1D
330
1B
100
AcDbEntity
 67
     1
  8
0
100
AcDbBlockEnd
  0
BLOCK
  5
24
330
23
100
AcDbEntity
  8
0
100
AcDbBlockBegin
  2
*Paper_Space0
 70
     0
 10
0.0
 20
0.0
 30
0.0
  3
*Paper_Space0
  1

  0
ENDBLK
  5
25
330
23
100
AcDbEntity
  8
0
100
AcDbBlockEnd
  0
BLOCK
  5
8D
330
8C
100
AcDbEntity
  8
0
100
AcDbBlockBegin
  2
SW_CENTERMARKSYMBOL_0
 70
     0
 10
0.0
 20
0.0
 30
0.0
  3
SW_CENTERMARKSYMBOL_0
  1

  0
LINE
  5
8F
330
8C
100
AcDbEntity
  8
FORMAT
 62
     0
100
AcDbLine
 10
0.0
 20
0.0
 30
0.0
 11
0.0
 21
2.5
 31
0.0
  0
LINE
  5
90
330
8C
100
AcDbEntity
  8
FORMAT
 62
     0
100
AcDbLine
 10
0.0
 20
0.0
 30
0.0
 11
-2.5
 21
0.0
 31
0.0
  0
LINE
  5
91
330
8C
100
AcDbEntity
  8
FORMAT
 62
     0
100
AcDbLine
 10
0.0
 20
0.0
 30
0.0
 11
0.0
 21
-2.5
 31
0.0
  0
LINE
  5
92
330
8C
100
AcDbEntity
  8
FORMAT
 62
     0
100
AcDbLine
 10
0.0
 20
0.0
 30
0.0
 11
2.5
 21
0.0
 31
0.0
  0
LINE
  5
93
330
8C
100
AcDbEntity
  8
FORMAT
 62
     0
100
AcDbLine
 10
0.0
 20
5.0
 30
0.0
 11
0.0
 21
104.5
 31
0.0
  0
LINE
  5
94
330
8C
100
AcDbEntity
  8
FORMAT
 62
     0
100
AcDbLine
 10
-5.0
 20
0.0
 30
0.0
 11
-104.5
 21
0.0
 31
0.0
  0
LINE
  5
95
330
8C
100
AcDbEntity
  8
FORMAT
 62
     0
100
AcDbLine
 10
0.0
 20
-5.0
 30
0.0
 11
0.0
 21
-104.5
 31
0.0
  0
LINE
  5
96
330
8C
100
AcDbEntity
  8
FORMAT
 62
     0
100
AcDbLine
 10
5.0
 20
0.0
 30
0.0
 11
104.5
 21
0.0
 31
0.0
  0
ENDBLK
  5
8E
330
8C
100
AcDbEntity
  8
0
100
AcDbBlockEnd
  0
BLOCK
  5
AB
330
AA
100
AcDbEntity
  8
0
100
AcDbBlockBegin
  2
SW_CENTERMARKSYMBOL_1
 70
     0
 10
0.0
 20
0.0
 30
0.0
  3
SW_CENTERMARKSYMBOL_1
  1

  0
LINE
  5
AD
330
AA
100
AcDbEntity
  8
FORMAT
 62
     0
100
AcDbLine
 10
0.0
 20
0.0
 30
0.0
 11
0.0
 21
2.5
 31
0.0
  0
LINE
  5
AE
330
AA
100
AcDbEntity
  8
FORMAT
 62
     0
100
AcDbLine
 10
0.0
 20
0.0
 30
0.0
 11
-2.5
 21
0.0
 31
0.0
  0
LINE
  5
AF
330
AA
100
AcDbEntity
  8
FORMAT
 62
     0
100
AcDbLine
 10
0.0
 20
0.0
 30
0.0
 11
0.0
 21
-2.5
 31
0.0
  0
LINE
  5
B0
330
AA
100
AcDbEntity
  8
FORMAT
 62
     0
100
AcDbLine
 10
0.0
 20
0.0
 30
0.0
 11
2.5
 21
0.0
 31
0.0
  0
LINE
  5
B1
330
AA
100
AcDbEntity
  8
FORMAT
 62
     0
100
AcDbLine
 10
0.0
 20
5.0
 30
0.0
 11
0.0
 21
82.5
 31
0.0
  0
LINE
  5
B2
330
AA
100
AcDbEntity
  8
FORMAT
 62
     0
100
AcDbLine
 10
-5.0
 20
0.0
 30
0.0
 11
-82.5
 21
0.0
 31
0.0
  0
LINE
  5
B3
330
AA
100
AcDbEntity
  8
FORMAT
 62
     0
100
AcDbLine
 10
0.0
 20
-5.0
 30
0.0
 11
0.0
 21
-82.5
 31
0.0
  0
LINE
  5
B4
330
AA
100
AcDbEntity
  8
FORMAT
 62
     0
100
AcDbLine
 10
5.0
 20
0.0
 30
0.0
 11
82.5
 21
0.0
 31
0.0
  0
ENDBLK
  5
AC
330
AA
100
AcDbEntity
  8
0
100
AcDbBlockEnd
  0
BLOCK
  5
DB
330
DA
100
AcDbEntity
  8
0
100
AcDbBlockBegin
  2
SW_CENTERMARKSYMBOL_2
 70
     0
 10
0.0
 20
0.0
 30
0.0
  3
SW_CENTERMARKSYMBOL_2
  1

  0
LINE
  5
DD
330
DA
100
AcDbEntity
  8
FORMAT
 62
     0
100
AcDbLine
 10
0.0
 20
0.0
 30
0.0
 11
0.0
 21
2.5
 31
0.0
  0
LINE
  5
DE
330
DA
100
AcDbEntity
  8
FORMAT
 62
     0
100
AcDbLine
 10
0.0
 20
0.0
 30
0.0
 11
-2.5
 21
0.0
 31
0.0
  0
LINE
  5
DF
330
DA
100
AcDbEntity
  8
FORMAT
 62
     0
100
AcDbLine
 10
0.0
 20
0.0
 30
0.0
 11
0.0
 21
-2.5
 31
0.0
  0
LINE
  5
E0
330
DA
100
AcDbEntity
  8
FORMAT
 62
     0
100
AcDbLine
 10
0.0
 20
0.0
 30
0.0
 11
2.5
 21
0.0
 31
0.0
  0
LINE
  5
E1
330
DA
100
AcDbEntity
  8
FORMAT
 62
     0
100
AcDbLine
 10
0.0
 20
5.0
 30
0.0
 11
0.0
 21
9.5
 31
0.0
  0
LINE
  5
E2
330
DA
100
AcDbEntity
  8
FORMAT
 62
     0
100
AcDbLine
 10
-5.0
 20
0.0
 30
0.0
 11
-9.5
 21
0.0
 31
0.0
  0
LINE
  5
E3
330
DA
100
AcDbEntity
  8
FORMAT
 62
     0
100
AcDbLine
 10
0.0
 20
-5.0
 30
0.0
 11
0.0
 21
-9.5
 31
0.0
  0
LINE
  5
E4
330
DA
100
AcDbEntity
  8
FORMAT
 62
     0
100
AcDbLine
 10
5.0
 20
0.0
 30
0.0
 11
9.5
 21
0.0
 31
0.0
  0
ENDBLK
  5
DC
330
DA
100
AcDbEntity
  8
0
100
AcDbBlockEnd
  0
BLOCK
  5
E7
330
E6
100
AcDbEntity
  8
0
100
AcDbBlockBegin
  2
SW_CENTERMARKSYMBOL_3
 70
     0
 10
0.0
 20
0.0
 30
0.0
  3
SW_CENTERMARKSYMBOL_3
  1

  0
LINE
  5
E9
330
E6
100
AcDbEntity
  8
FORMAT
 62
     0
100
AcDbLine
 10
0.0
 20
0.0
 30
0.0
 11
0.0
 21
2.5
 31
0.0
  0
LINE
  5
EA
330
E6
100
AcDbEntity
  8
FORMAT
 62
     0
100
AcDbLine
 10
0.0
 20
0.0
 30
0.0
 11
-2.5
 21
0.0
 31
0.0
  0
LINE
  5
EB
330
E6
100
AcDbEntity
  8
FORMAT
 62
     0
100
AcDbLine
 10
0.0
 20
0.0
 30
0.0
 11
0.0
 21
-2.5
 31
0.0
  0
LINE
  5
EC
330
E6
100
AcDbEntity
  8
FORMAT
 62
     0
100
AcDbLine
 10
0.0
 20
0.0
 30
0.0
 11
2.5
 21
0.0
 31
0.0
  0
LINE
  5
ED
330
E6
100
AcDbEntity
  8
FORMAT
 62
     0
100
AcDbLine
 10
0.0
 20
5.0
 30
0.0
 11
0.0
 21
9.5
 31
0.0
  0
LINE
  5
EE
330
E6
100
AcDbEntity
  8
FORMAT
 62
     0
100
AcDbLine
 10
-5.0
 20
0.0
 30
0.0
 11
-9.5
 21
0.0
 31
0.0
  0
LINE
  5
EF
330
E6
100
AcDbEntity
  8
FORMAT
 62
     0
100
AcDbLine
 10
0.0
 20
-5.0
 30
0.0
 11
0.0
 21
-9.5
 31
0.0
  0
LINE
  5
F0
330
E6
100
AcDbEntity
  8
FORMAT
 62
     0
100
AcDbLine
 10
5.0
 20
0.0
 30
0.0
 11
9.5
 21
0.0
 31
0.0
  0
ENDBLK
  5
E8
330
E6
100
AcDbEntity
  8
0
100
AcDbBlockEnd
  0
ENDSEC
  0
SECTION
  2
ENTITIES
  0
LINE
  5
83
330
1F
100
AcDbEntity
  8
0
  6
Continuous
 62
     7
370
    25
100
AcDbLine
 10
88.3981523933
 20
206.3641019253
 30
0.0
 11
88.3981523933
 21
221.5985134848
 31
0.0
  0
LINE
  5
84
330
1F
100
AcDbEntity
  8
0
  6
Continuous
 62
     7
370
    25
100
AcDbLine
 10
74.3981523933
 20
221.5985134848
 30
0.0
 11
74.3981523933
 21
206.3585711118
 31
0.0
  0
LINE
  5
85
330
1F
100
AcDbEntity
  8
0
  6
Continuous
 62
     7
370
    25
100
AcDbLine
 10
144.7066779227
 20
24.5985134848
 30
0.0
 11
291.3981523933
 21
24.5985134848
 31
0.0
  0
LINE
  5
86
330
1F
100
AcDbEntity
  8
0
  6
Continuous
 62
     7
370
    25
100
AcDbLine
 10
291.3981523933
 20
184.5985134848
 30
0.0
 11
144.7451484976
 21
184.5985134848
 31
0.0
  0
CIRCLE
  5
87
330
1F
100
AcDbEntity
  8
0
  6
Continuous
 62
     7
370
    25
100
AcDbCircle
 10
81.3981523933
 20
104.5985134848
 30
0.0
 40
80.00000000000001
  0
CIRCLE
  5
88
330
1F
100
AcDbEntity
  8
0
  6
Continuous
 62
     7
370
    25
100
AcDbCircle
 10
81.3981523933
 20
104.5985134848
 30
0.0
 40
102.0
  0
LINE
  5
89
330
1F
100
AcDbEntity
  8
0
  6
Continuous
 62
     7
370
    25
100
AcDbLine
 10
81.3981523933
 20
221.5985134848
 30
0.0
 11
74.3981523933
 21
221.5985134848
 31
0.0
  0
LINE
  5
8A
330
1F
100
AcDbEntity
  8
0
  6
Continuous
 62
     7
370
    25
100
AcDbLine
 10
88.3981523933
 20
221.5985134848
 30
0.0
 11
81.3981523933
 21
221.5985134848
 31
0.0
  0
LINE
  5
8B
330
1F
100
AcDbEntity
  8
0
  6
Continuous
 62
     7
370
    25
100
AcDbLine
 10
291.3981523933
 20
184.5985134848
 30
0.0
 11
291.3981523933
 21
24.5985134848
 31
0.0
  0
INSERT
  5
97
330
1F
100
AcDbEntity
  8
FORMAT
 62
     7
100
AcDbBlockReference
  2
SW_CENTERMARKSYMBOL_0
 10
81.3981523933
 20
104.5985134848
 30
0.0
  0
LINE
  5
98
330
1F
100
AcDbEntity
  8
0
  6
Continuous
 62
     7
370
    25
100
AcDbLine
 10
-465.8284932435
 20
206.5985134848
 30
0.0
 11
-466.9147737069
 21
206.5985134848
 31
0.0
  0
LINE
  5
99
330
1F
100
AcDbEntity
  8
0
  6
Continuous
 62
     7
370
    25
100
AcDbLine
 10
-161.8284932435
 20
206.5985134848
 30
0.0
 11
-451.9147737069
 21
206.5985134848
 31
0.0
  0
LINE
  5
9A
330
1F
100
AcDbEntity
  8
0
  6
Continuous
 62
     7
370
    25
100
AcDbLine
 10
-146.9147737069
 20
206.5985134848
 30
0.0
 11
-147.9147737069
 21
206.5985134848
 31
0.0
  0
LINE
  5
9B
330
1F
100
AcDbEntity
  8
0
  6
Continuous
 62
     7
370
    25
100
AcDbLine
 10
-466.9147737069
 20
2.5985134848
 30
0.0
 11
-146.9147737069
 21
2.5985134848
 31
0.0
  0
LINE
  5
9C
330
1F
100
AcDbEntity
  8
0
  6
Continuous
 62
     7
370
    25
100
AcDbLine
 10
-147.9147737069
 20
206.5985134848
 30
0.0
 11
-147.9147737069
 21
221.5985134848
 31
0.0
  0
LINE
  5
9D
330
1F
100
AcDbEntity
  8
0
  6
Continuous
 62
     7
370
    25
100
AcDbLine
 10
-161.9147737069
 20
221.5985134848
 30
0.0
 11
-161.9147737069
 21
206.5926717831
 31
0.0
  0
LINE
  5
9E
330
1F
100
AcDbEntity
  8
0
  6
Continuous
 62
     7
370
    25
100
AcDbLine
 10
-451.9147737069
 20
206.5985134848
 30
0.0
 11
-451.9147737069
 21
221.5985134848
 31
0.0
  0
LINE
  5
9F
330
1F
100
AcDbEntity
  8
0
  6
Continuous
 62
     7
370
    25
100
AcDbLine
 10
-465.9147737069
 20
221.5985134848
 30
0.0
 11
-465.9147737069
 21
206.5926717831
 31
0.0
  0
CIRCLE
  5
A0
330
1F
100
AcDbEntity
  8
0
  6
Continuous
 62
     7
370
    25
100
AcDbCircle
 10
-306.9147737069
 20
104.5985134848
 30
0.0
 40
65.4
  0
CIRCLE
  5
A1
330
1F
100
AcDbEntity
  8
0
  6
Continuous
 62
     7
370
    25
100
AcDbCircle
 10
-306.9147737069
 20
104.5985134848
 30
0.0
 40
80.0
  0
LINE
  5
A2
330
1F
100
AcDbEntity
  8
0
  6
Continuous
 62
     7
370
    25
100
AcDbLine
 10
-466.9147737069
 20
104.5985134848
 30
0.0
 11
-466.9147737069
 21
206.5985134848
 31
0.0
  0
LINE
  5
A3
330
1F
100
AcDbEntity
  8
0
  6
Continuous
 62
     7
370
    25
100
AcDbLine
 10
-466.9147737069
 20
2.5985134848
 30
0.0
 11
-466.9147737069
 21
104.5985134848
 31
0.0
  0
SPLINE
  5
A4
330
1F
100
AcDbEntity
  8
0
  6
Continuous
 62
     7
370
    25
100
AcDbSpline
210
0.0
220
0.0
230
1.0
 70
     8
 71
     3
 72
    17
 73
    13
 74
     0
 42
0.00000001
 43
0.00000001
 40
0.0
 40
0.0
 40
0.0
 40
0.0
 40
0.1071987416107223
 40
0.214391400444446
 40
0.3217420566552195
 40
0.4291972110293518
 40
0.5364801409012593
 40
0.6435828546421559
 40
0.7507785987758453
 40
0.8581952296736661
 40
0.9656163607216554
 40
0.9999999999999999
 40
0.9999999999999999
 40
0.9999999999999999
 40
0.9999999999999999
 10
-147.9147737069427
 20
206.5985134848259
 30
0.0
 10
-147.9919829796463
 20
206.5930641321526
 30
0.0
 10
-148.1463971439686
 20
206.5821657360187
 30
0.0
 10
-149.349878883121
 20
206.5063711974527
 30
0.0
 10
-151.1237314611794
 20
206.4219721652926
 30
0.0
 10
-153.3411762328769
 20
206.3611280415602
 30
0.0
 10
-155.7319837634374
 20
206.3520366285132
 30
0.0
 10
-158.0253617483084
 20
206.3978657999325
 30
0.0
 10
-159.9838152045472
 20
206.479778220459
 30
0.0
 10
-161.3184604665094
 20
206.5575581325735
 30
0.0
 10
-161.9530932456506
 20
206.6011080973619
 30
0.0
 10
-161.8528092671061
 20
206.594300860313
 30
0.0
 10
-161.8284932434932
 20
206.5926502981871
 30
0.0
  0
SPLINE
  5
A5
330
1F
100
AcDbEntity
  8
0
  6
Continuous
 62
     7
370
    25
100
AcDbSpline
210
0.0
220
0.0
230
1.0
 70
     8
 71
     3
 72
    17
 73
    13
 74
     0
 42
0.00000001
 43
0.00000001
 40
0.0
 40
0.0
 40
0.0
 40
0.0
 40
0.1071987416107223
 40
0.214391400444446
 40
0.3217420566552195
 40
0.4291972110293518
 40
0.5364801409012593
 40
0.6435828546421559
 40
0.7507785987758453
 40
0.8581952296736661
 40
0.9656163607216554
 40
0.9999999999999999
 40
0.9999999999999999
 40
0.9999999999999999
 40
0.9999999999999999
 10
-451.9147737069426
 20
206.5985134848259
 30
0.0
 10
-451.9919829796463
 20
206.5930641321526
 30
0.0
 10
-452.1463971439686
 20
206.5821657360187
 30
0.0
 10
-453.3498788831211
 20
206.5063711974527
 30
0.0
 10
-455.1237314611794
 20
206.4219721652926
 30
0.0
 10
-457.3411762328769
 20
206.3611280415602
 30
0.0
 10
-459.7319837634374
 20
206.3520366285132
 30
0.0
 10
-462.0253617483085
 20
206.3978657999325
 30
0.0
 10
-463.9838152045473
 20
206.479778220459
 30
0.0
 10
-465.3184604665092
 20
206.5575581325735
 30
0.0
 10
-465.9530932456506
 20
206.6011080973619
 30
0.0
 10
-465.852809267106
 20
206.594300860313
 30
0.0
 10
-465.8284932434932
 20
206.5926502981871
 30
0.0
  0
LINE
  5
A6
330
1F
100
AcDbEntity
  8
0
  6
Continuous
 62
     7
370
    25
100
AcDbLine
 10
-146.9147737069
 20
104.5985134848
 30
0.0
 11
-146.9147737069
 21
206.5985134848
 31
0.0
  0
LINE
  5
A7
330
1F
100
AcDbEntity
  8
0
  6
Continuous
 62
     7
370
    25
100
AcDbLine
 10
-146.9147737069
 20
2.5985134848
 30
0.0
 11
-146.9147737069
 21
104.5985134848
 31
0.0
  0
LINE
  5
A8
330
1F
100
AcDbEntity
  8
0
  6
Continuous
 62
     7
370
    25
100
AcDbLine
 10
-147.9147737069
 20
221.5985134848
 30
0.0
 11
-161.9147737069
 21
221.5985134848
 31
0.0
  0
LINE
  5
A9
330
1F
100
AcDbEntity
  8
0
  6
Continuous
 62
     7
370
    25
100
AcDbLine
 10
-451.9147737069
 20
221.5985134848
 30
0.0
 11
-465.9147737069
 21
221.5985134848
 31
0.0
  0
INSERT
  5
B5
330
1F
100
AcDbEntity
  8
FORMAT
 62
     7
100
AcDbBlockReference
  2
SW_CENTERMARKSYMBOL_1
 10
-306.9147737069
 20
104.5985134848
 30
0.0
  0
LINE
  5
B6
330
1F
100
AcDbEntity
  8
0
  6
Continuous
 62
     7
370
    25
100
AcDbLine
 10
183.3981523933
 20
548.6223683999
 30
0.0
 11
183.3981523933
 21
628.6223683999
 31
0.0
  0
LINE
  5
B7
330
1F
100
AcDbEntity
  8
0
  6
Continuous
 62
     7
370
    25
100
AcDbLine
 10
183.3981523933
 20
308.6223683999
 30
0.0
 11
183.3981523933
 21
388.6269281806
 31
0.0
  0
LINE
  5
B8
330
1F
100
AcDbEntity
  8
0
  6
Continuous
 62
     7
370
    25
100
AcDbLine
 10
-20.6018476067
 20
628.6223683999
 30
0.0
 11
-20.6018476067
 21
308.6223683999
 31
0.0
  0
LINE
  5
B9
330
1F
100
AcDbEntity
  8
0
  6
Continuous
 62
     7
370
    25
100
AcDbLine
 10
183.3945775381
 20
388.6223683999
 30
0.0
 11
291.3981523933
 21
388.6223683999
 31
0.0
  0
LINE
  5
BA
330
1F
100
AcDbEntity
  8
0
  6
Continuous
 62
     7
370
    25
100
AcDbLine
 10
291.3981523933
 20
548.6223683999
 30
0.0
 11
183.3981523933
 21
548.6223683999
 31
0.0
  0
SPLINE
  5
BB
330
1F
100
AcDbEntity
  8
0
  6
Continuous
 62
     7
370
    25
100
AcDbSpline
210
0.0
220
0.0
230
1.0
 70
     8
 71
     3
 72
    49
 73
    45
 74
     0
 42
0.00000001
 43
0.00000001
 40
0.0
 40
0.0
 40
0.0
 40
0.0
 40
0.0214990462153268
 40
0.0429987534988449
 40
0.0652128352324793
 40
0.087428842006299
 40
0.1089044371842078
 40
0.1303820772903589
 40
0.1523835627975358
 40
0.1743870988179944
 40
0.2031107753684622
 40
0.2318386383009159
 40
0.2613890596171277
 40
0.2909411548817772
 40
0.3200505514067907
 40
0.3491570623546951
 40
0.3791640095286676
 40
0.4091573604856198
 40
0.4262903183568679
 40
0.4434206141023977
 40
0.4609763208243771
 40
0.4785292335035485
 40
0.4956965394735318
 40
0.512863480976585
 40
0.5306218860262087
 40
0.548382820010039
 40
0.5687584278801813
 40
0.5891394999508923
 40
0.6100861998444304
 40
0.6310367629724039
 40
0.6605061484985593
 40
0.6899810016377309
 40
0.7202840298310985
 40
0.7505865276402806
 40
0.7804996977090254
 40
0.8104087549528953
 40
0.841370574117896
 40
0.8723246266859006
 40
0.8934863822188461
 40
0.9146462131135944
 40
0.9363893608860346
 40
0.9581307691974206
 40
0.9793155869376438
 40
1.0
 40
1.0
 40
1.0
 40
1.0
 10
183.3981523932595
 20
548.6223683999183
 30
0.0
 10
183.3670654887804
 20
548.5828069441079
 30
0.0
 10
183.3048907239397
 20
548.5036828160227
 30
0.0
 10
182.8064819332486
 20
547.8670649067228
 30
0.0
 10
182.0060877418279
 20
546.841191298729
 30
0.0
 10
180.898481584265
 20
545.4120232395034
 30
0.0
 10
179.5310572729618
 20
543.6330287917941
 30
0.0
 10
177.928504142071
 20
541.5252850583745
 30
0.0
 10
176.0939131984827
 20
539.0803416570128
 30
0.0
 10
173.8461819034748
 20
536.0341072312808
 30
0.0
 10
171.1644413475842
 20
532.317316731466
 30
0.0
 10
168.0205895214729
 20
527.8114146702976
 30
0.0
 10
164.7001432024874
 20
522.8493676725841
 30
0.0
 10
161.2962785492297
 20
517.4694928987216
 30
0.0
 10
157.9172375434437
 20
511.7411937339864
 30
0.0
 10
154.6251988365555
 20
505.6096462390154
 30
0.0
 10
151.5126211512748
 20
499.0335503477758
 30
0.0
 10
149.1352490911234
 20
492.997120655823
 30
0.0
 10
147.46325126227
 20
487.7553965567566
 30
0.0
 10
146.3324528354244
 20
483.4102609047448
 30
0.0
 10
145.4567372712381
 20
478.923912478472
 30
0.0
 10
144.8787579107688
 20
474.3527934938938
 30
0.0
 10
144.6325118613915
 20
469.7673488560727
 30
0.0
 10
144.713159953935
 20
465.1540000602586
 30
0.0
 10
145.137855194339
 20
460.5181917895042
 30
0.0
 10
145.926177755784
 20
455.6723322492663
 30
0.0
 10
147.0997930201068
 20
450.7167137065377
 30
0.0
 10
148.6602031567286
 20
445.6534649250736
 30
0.0
 10
150.5036309659033
 20
440.7258284685588
 30
0.0
 10
152.8545589501786
 20
435.2987473159557
 30
0.0
 10
155.7201483626806
 20
429.5168246985268
 30
0.0
 10
159.1000033254263
 20
423.4431502981023
 30
0.0
 10
162.5798767308853
 20
417.7012063006002
 30
0.0
 10
166.0568063770089
 20
412.3382719636435
 30
0.0
 10
169.4093140549545
 20
407.4192032604516
 30
0.0
 10
172.6034001828874
 20
402.9163454957622
 30
0.0
 10
175.561170141262
 20
398.8733884411285
 30
0.0
 10
177.9158365696676
 20
395.7344543756656
 30
0.0
 10
179.6926621729554
 20
393.4006414129687
 30
0.0
 10
181.0106382707466
 20
391.6876214194886
 30
0.0
 10
182.073177066305
 20
390.3173960526195
 30
0.0
 10
182.8389156061226
 20
389.3362119376605
 30
0.0
 10
183.3119721765724
 20
388.7320431874287
 30
0.0
 10
183.3672616502248
 20
388.6616862232206
 30
0.0
 10
183.3945759879641
 20
388.6269281805817
 30
0.0
  0
LINE
  5
BC
330
1F
100
AcDbEntity
  8
0
  6
Continuous
 62
     7
370
    25
100
AcDbLine
 10
-20.6018476067
 20
628.6223683999
 30
0.0
 11
183.3981523933
 21
628.6223683999
 31
0.0
  0
LINE
  5
BD
330
1F
100
AcDbEntity
  8
0
  6
Continuous
 62
     7
370
    25
100
AcDbLine
 10
-20.6018476067
 20
308.6223683999
 30
0.0
 11
183.3981523933
 21
308.6223683999
 31
0.0
  0
LINE
  5
BE
330
1F
100
AcDbEntity
  8
0
  6
Continuous
 62
     7
370
    25
100
AcDbLine
 10
291.3981523933
 20
548.6223683999
 30
0.0
 11
291.3981523933
 21
388.6223683999
 31
0.0
  0
LINE
  5
BF
330
1F
100
AcDbEntity
  8
0
  6
Continuous
 62
     7
370
    25
100
AcDbLine
 10
405.6706014696
 20
2.5985134848
 30
0.0
 11
725.6706014696
 21
2.5985134848
 31
0.0
  0
LINE
  5
C0
330
1F
100
AcDbEntity
  8
0
  6
Continuous
 62
     7
370
    25
100
AcDbLine
 10
406.6706014696
 20
206.5985134848
 30
0.0
 11
405.6706014696
 21
206.5985134848
 31
0.0
  0
LINE
  5
C1
330
1F
100
AcDbEntity
  8
0
  6
Continuous
 62
     7
370
    25
100
AcDbLine
 10
710.6706014696
 20
206.5985134848
 30
0.0
 11
420.5843210062
 21
206.5985134848
 31
0.0
  0
LINE
  5
C2
330
1F
100
AcDbEntity
  8
0
  6
Continuous
 62
     7
370
    25
100
AcDbLine
 10
725.6706014696
 20
206.5985134848
 30
0.0
 11
724.5843210062
 21
206.5985134848
 31
0.0
  0
LINE
  5
C3
330
1F
100
AcDbEntity
  8
0
  6
Continuous
 62
     7
370
    25
100
AcDbLine
 10
420.6706014696
 20
206.5926717831
 30
0.0
 11
420.6706014696
 21
221.5985134848
 31
0.0
  0
LINE
  5
C4
330
1F
100
AcDbEntity
  8
0
  6
Continuous
 62
     7
370
    25
100
AcDbLine
 10
406.6706014696
 20
221.5985134848
 30
0.0
 11
406.6706014696
 21
206.5985134848
 31
0.0
  0
LINE
  5
C5
330
1F
100
AcDbEntity
  8
0
  6
Continuous
 62
     7
370
    25
100
AcDbLine
 10
724.6706014696
 20
206.5926717831
 30
0.0
 11
724.6706014696
 21
221.5985134848
 31
0.0
  0
LINE
  5
C6
330
1F
100
AcDbEntity
  8
0
  6
Continuous
 62
     7
370
    25
100
AcDbLine
 10
710.6706014696
 20
221.5985134848
 30
0.0
 11
710.6706014696
 21
206.5985134848
 31
0.0
  0
LINE
  5
C7
330
1F
100
AcDbEntity
  8
0
  6
Continuous
 62
     7
370
    25
100
AcDbLine
 10
725.6706014696
 20
206.5985134848
 30
0.0
 11
725.6706014696
 21
2.5985134848
 31
0.0
  0
ARC
  5
C8
330
1F
100
AcDbEntity
  8
0
  6
Continuous
 62
     7
370
    25
100
AcDbCircle
 10
413.6703890496
 20
308.4660440506
 30
0.0
 40
102.1077411841567
100
AcDbArc
 50
266.0691219218
 51
273.8825896492
  0
ARC
  5
C9
330
1F
100
AcDbEntity
  8
0
  6
Continuous
 62
     7
370
    25
100
AcDbCircle
 10
717.6703890496
 20
308.4660440505
 30
0.0
 40
102.1077411841083
100
AcDbArc
 50
266.0691219218
 51
273.8825896492
  0
LINE
  5
CA
330
1F
100
AcDbEntity
  8
0
  6
Continuous
 62
     7
370
    25
100
AcDbLine
 10
405.6706014696
 20
206.5985134848
 30
0.0
 11
405.6706014696
 21
2.5985134848
 31
0.0
  0
LINE
  5
CB
330
1F
100
AcDbEntity
  8
0
  6
Continuous
 62
     7
370
    25
100
AcDbLine
 10
420.6706014696
 20
221.5985134848
 30
0.0
 11
406.6706014696
 21
221.5985134848
 31
0.0
  0
LINE
  5
CC
330
1F
100
AcDbEntity
  8
0
  6
Continuous
 62
     7
370
    25
100
AcDbLine
 10
724.6706014696
 20
221.5985134848
 30
0.0
 11
710.6706014696
 21
221.5985134848
 31
0.0
  0
LINE
  5
CD
330
1F
100
AcDbEntity
  8
0
  6
Continuous
 62
     7
370
    25
100
AcDbLine
 10
-20.6018476067
 20
-53.1915328174
 30
0.0
 11
-20.6018476067
 21
-373.1915328174
 31
0.0
  0
LINE
  5
CE
330
1F
100
AcDbEntity
  8
0
  6
Continuous
 62
     7
370
    25
100
AcDbLine
 10
183.3981523933
 20
-133.1960925981
 30
0.0
 11
183.3981523933
 21
-53.1915328174
 31
0.0
  0
LINE
  5
CF
330
1F
100
AcDbEntity
  8
0
  6
Continuous
 62
     7
370
    25
100
AcDbLine
 10
183.3981523933
 20
-373.1915328174
 30
0.0
 11
183.3981523933
 21
-293.1915328174
 31
0.0
  0
LINE
  5
D0
330
1F
100
AcDbEntity
  8
0
  6
Continuous
 62
     7
370
    25
100
AcDbLine
 10
183.3981523933
 20
-293.1915328174
 30
0.0
 11
291.3981523933
 21
-293.1915328174
 31
0.0
  0
LINE
  5
D1
330
1F
100
AcDbEntity
  8
0
  6
Continuous
 62
     7
370
    25
100
AcDbLine
 10
291.3981523933
 20
-133.1915328174
 30
0.0
 11
183.3945775381
 21
-133.1915328174
 31
0.0
  0
CIRCLE
  5
D2
330
1F
100
AcDbEntity
  8
0
  6
Continuous
 62
     7
370
    25
100
AcDbCircle
 10
81.3981523933
 20
-61.1915328174
 30
0.0
 40
5.0
  0
CIRCLE
  5
D3
330
1F
100
AcDbEntity
  8
0
  6
Continuous
 62
     7
370
    25
100
AcDbCircle
 10
81.3981523933
 20
-61.1915328174
 30
0.0
 40
7.000000000000014
  0
CIRCLE
  5
D4
330
1F
100
AcDbEntity
  8
0
  6
Continuous
 62
     7
370
    25
100
AcDbCircle
 10
81.3981523933
 20
-365.1915328174
 30
0.0
 40
5.0
  0
CIRCLE
  5
D5
330
1F
100
AcDbEntity
  8
0
  6
Continuous
 62
     7
370
    25
100
AcDbCircle
 10
81.3981523933
 20
-365.1915328174
 30
0.0
 40
7.0
  0
SPLINE
  5
D6
330
1F
100
AcDbEntity
  8
0
  6
Continuous
 62
     7
370
    25
100
AcDbSpline
210
0.0
220
0.0
230
1.0
 70
     8
 71
     3
 72
    51
 73
    47
 74
     0
 42
0.00000001
 43
0.00000001
 40
0.0
 40
0.0
 40
0.0
 40
0.0
 40
0.0004998011173762
 40
0.022391828900918
 40
0.0442845952690518
 40
0.0641431403448336
 40
0.0840029048537877
 40
0.1043611406064623
 40
0.1247210228933015
 40
0.1461810170713579
 40
0.1676429162838306
 40
0.1895426895250958
 40
0.2114440605885423
 40
0.2371027478560022
 40
0.2627631635103856
 40
0.288952692577972
 40
0.3151421077217963
 40
0.3398556456699663
 40
0.3645664716710527
 40
0.3898772306090996
 40
0.4151797746964661
 40
0.4321763374338715
 40
0.4491702318711664
 40
0.4666023543775608
 40
0.4840319886016263
 40
0.5010590873639603
 40
0.5180862710825523
 40
0.5356831634258172
 40
0.5532827428550415
 40
0.574196114921888
 40
0.5951153553314076
 40
0.6166106394909642
 40
0.6381097759077676
 40
0.6679900040260532
 40
0.6978749490088588
 40
0.7286072592464515
 40
0.7593383518420299
 40
0.7894819634997492
 40
0.8196208733030085
 40
0.8508842045957826
 40
0.8821391078721661
 40
0.9029311332448503
 40
0.9237213907489394
 40
0.9450832986209163
 40
0.9664437409761818
 40
1.0
 40
1.0
 40
1.0
 40
1.0
 10
183.3945759879641
 20
-133.196092598065
 30
0.0
 10
183.395764527635
 20
-133.1945772790156
 30
0.0
 10
183.4490128618727
 20
-133.126688745548
 30
0.0
 10
183.2549531059738
 20
-133.373839306224
 30
0.0
 10
182.8004817369298
 20
-133.9545590801968
 30
0.0
 10
182.039888221384
 20
-134.9295577281515
 30
0.0
 10
181.0608079246051
 20
-136.192145692508
 30
0.0
 10
179.833691537372
 20
-137.7859848250285
 30
0.0
 10
178.3526254868556
 20
-139.7287051096644
 30
0.0
 10
176.6344752617053
 20
-142.0095852044017
 30
0.0
 10
174.6835608690412
 20
-144.6398362189401
 30
0.0
 10
172.5520627965263
 20
-147.5669900946407
 30
0.0
 10
170.137225312571
 20
-150.9597181121887
 30
0.0
 10
167.458223933762
 20
-154.8338335640301
 30
0.0
 10
164.5214850664031
 20
-159.2519335277022
 30
0.0
 10
161.5106442168482
 20
-164.0063895890638
 30
0.0
 10
158.5417979541065
 20
-169.0000401663118
 30
0.0
 10
155.6920718237168
 20
-174.1757032527049
 30
0.0
 10
153.0020433705056
 20
-179.5607933550248
 30
0.0
 10
150.493790900071
 20
-185.2645331113312
 30
0.0
 10
148.5148333694333
 20
-190.6364130637685
 30
0.0
 10
147.0539491852408
 20
-195.5215688721702
 30
0.0
 10
146.0137328287148
 20
-199.8700774456136
 30
0.0
 10
145.2377029781303
 20
-204.352907537715
 30
0.0
 10
144.7647424388045
 20
-208.9094262117407
 30
0.0
 10
144.6235456731978
 20
-213.4663500107326
 30
0.0
 10
144.8048471510411
 20
-218.0357501463725
 30
0.0
 10
145.3205982226988
 20
-222.6146944586994
 30
0.0
 10
146.2020465845665
 20
-227.4525905196121
 30
0.0
 10
147.4793209283601
 20
-232.4485572593863
 30
0.0
 10
149.1627953178863
 20
-237.5952543305968
 30
0.0
 10
151.1247930241922
 20
-242.5943963210006
 30
0.0
 10
153.5903272045422
 20
-248.0634278276816
 30
0.0
 10
156.5548526374783
 20
-253.8583269115008
 30
0.0
 10
160.0104478210051
 20
-259.9167324283839
 30
0.0
 10
163.5424591552413
 20
-265.6315430546063
 30
0.0
 10
167.0392497629929
 20
-270.9407399106709
 30
0.0
 10
170.3781044197692
 20
-275.77789114578
 30
0.0
 10
173.5271765613351
 20
-280.1723171978359
 30
0.0
 10
176.4114065949994
 20
-284.0827591618511
 30
0.0
 10
178.6563320852603
 20
-287.0562164444323
 30
0.0
 10
180.3029981795049
 20
-289.2084758911022
 30
0.0
 10
181.4904145815802
 20
-290.745988965753
 30
0.0
 10
182.4121797998215
 20
-291.9315957856182
 30
0.0
 10
183.2059488843798
 20
-292.9467365006897
 30
0.0
 10
183.3252529367489
 20
-293.098685821277
 30
0.0
 10
183.3981523932595
 20
-293.1915328174017
 30
0.0
  0
LINE
  5
D7
330
1F
100
AcDbEntity
  8
0
  6
Continuous
 62
     7
370
    25
100
AcDbLine
 10
183.3981523933
 20
-373.1915328174
 30
0.0
 11
-20.6018476067
 21
-373.1915328174
 31
0.0
  0
LINE
  5
D8
330
1F
100
AcDbEntity
  8
0
  6
Continuous
 62
     7
370
    25
100
AcDbLine
 10
183.3981523933
 20
-53.1915328174
 30
0.0
 11
-20.6018476067
 21
-53.1915328174
 31
0.0
  0
LINE
  5
D9
330
1F
100
AcDbEntity
  8
0
  6
Continuous
 62
     7
370
    25
100
AcDbLine
 10
291.3981523933
 20
-133.1915328174
 30
0.0
 11
291.3981523933
 21
-293.1915328174
 31
0.0
  0
INSERT
  5
E5
330
1F
100
AcDbEntity
  8
FORMAT
 62
     7
100
AcDbBlockReference
  2
SW_CENTERMARKSYMBOL_2
 10
81.3981523933
 20
-61.1915328174
 30
0.0
  0
INSERT
  5
F1
330
1F
100
AcDbEntity
  8
FORMAT
 62
     7
100
AcDbBlockReference
  2
SW_CENTERMARKSYMBOL_3
 10
81.3981523933
 20
-365.1915328174
 30
0.0
  0
LINE
  5
F2
330
1F
100
AcDbEntity
  8
0
  6
Continuous
 62
     7
370
    25
100
AcDbLine
 10
646.3239349168
 20
-270.9056561179
 30
0.0
 11
734.8054072429
 21
-219.8263893968
 31
0.0
  0
LINE
  5
F3
330
1F
100
AcDbEntity
  8
0
  6
Continuous
 62
     7
370
    25
100
AcDbLine
 10
654.811908632
 20
-81.2585714159
 30
0.0
 11
566.3265667696
 21
-132.3400719727
 31
0.0
  0
LINE
  5
F4
330
1F
100
AcDbEntity
  8
0
  6
Continuous
 62
     7
370
    25
100
AcDbLine
 10
568.3180219156
 20
-131.1904293878
 30
0.0
 11
484.1750042629
 21
-82.6156992391
 31
0.0
  0
LINE
  5
F5
330
1F
100
AcDbEntity
  8
0
  6
Continuous
 62
     7
370
    25
100
AcDbLine
 10
382.183293534
 20
-259.2896671647
 30
0.0
 11
608.4574635137
 21
-389.9149650564
 31
0.0
  0
LINE
  5
F6
330
1F
100
AcDbEntity
  8
0
  6
Continuous
 62
     7
370
    25
100
AcDbLine
 10
445.8360031479
 20
-81.6513190468
 30
0.0
 11
445.8360031479
 21
-78.6830406586
 31
0.0
  0
LINE
  5
F7
330
1F
100
AcDbEntity
  8
0
  6
Continuous
 62
     7
370
    25
100
AcDbLine
 10
431.8360031479
 20
-78.6830406586
 30
0.0
 11
431.8360031479
 21
-88.4553450684
 31
0.0
  0
LWPOLYLINE
  5
F8
330
1F
100
AcDbEntity
  8
0
  6
Continuous
 62
     7
370
    25
100
AcDbPolyline
 90
       88
 70
   128
 43
0.0
 10
741.0534414271
 20
-177.2390256629
 10
740.932891983
 20
-173.3160821363
 10
740.5718721398
 20
-169.2744075953
 10
739.9722640878
 20
-165.1350734595
 10
739.1371939056
 20
-160.9196603003
 10
738.0710152627
 20
-156.6501453303
 10
736.7792867206
 20
-152.3487878233
 10
735.268742754
 20
-148.0380130659
 10
733.5472586396
 20
-143.7402954416
 10
731.6238093986
 20
-139.47804126
 10
729.5084230045
 20
-135.2734719408
 10
727.2121281027
 20
-131.1485081617
 10
724.7468965113
 20
-127.1246555738
 10
722.1255808065
 20
-123.2228926813
 10
719.3618473146
 20
-119.4635614692
 10
716.4701048623
 20
-115.8662613498
 10
713.4654296558
 20
-112.4497469803
 10
710.3634866802
 20
-109.2318304845
 10
707.1804480301
 20
-106.2292885891
 10
703.932908595
 20
-103.4577751572
 10
700.6377995418
 20
-100.9317395766
 10
697.3123000433
 20
-98.6643514271
 10
693.9737477143
 20
-96.6674318207
 10
690.6395482205
 20
-94.9513917715
 10
687.3270845344
 20
-93.5251779178
 10
684.0536263077
 20
-92.3962258782
 10
680.836239836
 20
-91.5704214859
 10
677.6916990825
 20
-91.0520701026
 10
674.6363982268
 20
-90.8438741725
 10
671.6862661927
 20
-90.9469191327
 10
668.8566836026
 20
-91.3606677545
 10
666.16240259
 20
-92.0829629441
 10
663.6174698886
 20
-93.110038989
 10
661.235153599
 20
-94.4365411901
 10
659.0278740153
 20
-96.0555537792
 10
657.0071388712
 20
-97.9586359743
 10
655.1834833441
 20
-100.1358659861
 10
653.5664151294
 20
-102.5758927454
 10
652.164364872
 20
-105.2659950826
 10
650.9846422129
 20
-108.1921480495
 10
650.0333976796
 20
-111.3390960397
 10
649.3155906208
 20
-114.6904323234
 10
648.8349633501
 20
-118.2286845849
 10
648.5940216354
 20
-121.9354060155
 10
648.5940216354
 20
-125.7912714858
 10
648.8349633501
 20
-129.7761782988
 10
649.3155906208
 20
-133.8693509953
 10
650.0333976796
 20
-138.0494496684
 10
650.9846422129
 20
-142.294681219
 10
652.164364872
 20
-146.5829129756
 10
653.5664151294
 20
-150.8917880833
 10
655.1834833441
 20
-155.1988420625
 10
657.0071388712
 20
-159.4816199281
 10
659.0278740153
 20
-163.7177932594
 10
661.235153599
 20
-167.8852766102
 10
663.6174698886
 20
-171.9623426518
 10
666.16240259
 20
-175.9277354499
 10
668.8566836026
 20
-179.7607812824
 10
671.6862661927
 20
-183.4414964233
 10
674.6363982268
 20
-186.9506913282
 10
677.6916990825
 20
-190.2700706795
 10
680.836239836
 20
-193.3823287705
 10
684.0536263077
 20
-196.2712397286
 10
687.3270845344
 20
-198.9217421095
 10
690.6395482205
 20
-201.3200174213
 10
693.9737477143
 20
-203.4535621669
 10
697.3123000433
 20
-205.311253032
 10
700.6377995418
 20
-206.8834048764
 10
703.932908595
 20
-208.1618212286
 10
707.1804480301
 20
-209.1398370175
 10
710.3634866802
 20
-209.8123533218
 10
713.4654296558
 20
-210.1758639527
 10
716.4701048623
 20
-210.2284737343
 10
719.3618473146
 20
-209.9699083833
 10
722.1255808065
 20
-209.40151594
 10
724.7468965113
 20
-208.5262597392
 10
727.2121281027
 20
-207.3487029615
 10
729.5084230045
 20
-205.8749848428
 10
731.6238093986
 20
-204.1127886668
 10
733.5472586396
 20
-202.0713017086
 10
735.268742754
 20
-199.7611673358
 10
736.7792867206
 20
-197.1944295194
 10
738.0710152627
 20
-194.3844700418
 10
739.1371939056
 20
-191.3459387306
 10
739.9722640878
 20
-188.0946770813
 10
740.5718721398
 20
-184.6476356665
 10
740.932891983
 20
-181.022785764
 10
741.0534414271
 20
-177.2390256629
  0
LWPOLYLINE
  5
F9
330
1F
100
AcDbEntity
  8
0
  6
Continuous
 62
     7
370
    25
100
AcDbPolyline
 90
       97
 70
   128
 43
0.0
 10
751.3772004324
 20
-183.1988048792
 10
751.2560828406
 20
-178.8565392425
 10
750.8932487094
 20
-174.3930284589
 10
750.2902517503
 20
-169.827385967
 10
749.4496740888
 20
-165.1791625488
 10
748.3751152075
 20
-160.4682626106
 10
747.0711765325
 20
-155.7148589492
 10
745.5434417294
 20
-150.9393063688
 10
743.7984527931
 20
-146.1620545187
 10
741.8436820342
 20
-141.4035603247
 10
739.6875000812
 20
-136.6842003895
 10
737.3391400362
 20
-132.024183737
 10
734.8086579375
 20
-127.4434652737
 10
732.1068896978
 20
-122.9616603395
 10
729.2454047036
 20
-118.5979607111
 10
726.2364562729
 20
-114.3710524203
 10
723.0929291849
 20
-110.2990357372
 10
719.8282845051
 20
-106.3993476625
 10
716.4565019433
 20
-102.6886872591
 10
712.99201999
 20
-99.1829441447
 10
709.4496740888
 20
-95.8971304494
 10
705.8446331088
 20
-92.8453165319
 10
702.1923343888
 20
-90.040570728
 10
698.5084176326
 20
-87.4949033897
 10
694.8086579375
 20
-85.2192154555
 10
691.1088982423
 20
-83.2232517703
 10
687.4249814862
 20
-81.5155593573
 10
683.7726827661
 20
-80.1034508174
 10
680.1676417861
 20
-78.9929730161
 10
676.6252958849
 20
-78.18888119
 10
673.1608139316
 20
-77.6946185837
 10
669.7890313698
 20
-77.5123017055
 10
666.52438669
 20
-77.6427112643
 10
663.380859602
 20
-78.0852888263
 10
660.3719111713
 20
-78.8381392065
 10
657.5104261771
 20
-79.898038584
 10
654.8086579375
 20
-81.2604483069
 10
652.2781758387
 20
-82.9195343276
 10
649.9298157937
 20
-84.8681921851
 10
647.7736338407
 20
-87.0980774273
 10
645.8188630818
 20
-89.5996413431
 10
644.0738741455
 20
-92.362171852
 10
642.5461393424
 20
-95.3738393741
 10
641.2422006674
 20
-98.6217474867
 10
640.1676417861
 20
-102.0919881487
 10
639.3270641246
 20
-105.7697012568
 10
638.7240671655
 20
-109.6391382789
 10
638.3612330343
 20
-113.6837296915
 10
638.2401154425
 20
-117.8861559334
 10
638.3612330343
 20
-122.2284215702
 10
638.7240671655
 20
-126.6919323537
 10
639.3270641246
 20
-131.2575748456
 10
640.1676417861
 20
-135.9057982638
 10
641.2422006674
 20
-140.616698202
 10
642.5461393424
 20
-145.3701018634
 10
644.0738741455
 20
-150.1456544439
 10
645.8188630818
 20
-154.922906294
 10
647.7736338407
 20
-159.681400488
 10
649.9298157937
 20
-164.4007604231
 10
652.2781758387
 20
-169.0607770757
 10
654.8086579375
 20
-173.6414955389
 10
657.5104261771
 20
-178.1233004731
 10
660.3719111713
 20
-182.4870001015
 10
663.380859602
 20
-186.7139083924
 10
666.52438669
 20
-190.7859250755
 10
669.7890313698
 20
-194.6856131502
 10
673.1608139316
 20
-198.3962735535
 10
676.6252958849
 20
-201.9020166679
 10
680.1676417861
 20
-205.1878303632
 10
683.7726827661
 20
-208.2396442807
 10
687.4249814862
 20
-211.0443900847
 10
691.1088982423
 20
-213.5900574229
 10
694.8086579375
 20
-215.8657453572
 10
698.5084176326
 20
-217.8617090423
 10
702.1923343888
 20
-219.5694014554
 10
705.8446331088
 20
-220.9815099953
 10
709.4496740888
 20
-222.0919877965
 10
712.99201999
 20
-222.8960796226
 10
716.4565019433
 20
-223.390342229
 10
719.8282845051
 20
-223.5726591072
 10
723.0929291849
 20
-223.4422495484
 10
726.2364562729
 20
-222.9996719863
 10
729.2454047036
 20
-222.2468216061
 10
732.1068896978
 20
-221.1869222286
 10
734.8086579375
 20
-219.8245125057
 10
737.3391400362
 20
-218.165426485
 10
739.6875000812
 20
-216.2167686275
 10
741.8436820342
 20
-213.9868833854
 10
743.7984527931
 20
-211.4853194695
 10
745.5434417294
 20
-208.7227889607
 10
747.0711765325
 20
-205.7111214386
 10
748.3751152075
 20
-202.463213326
 10
749.4496740888
 20
-198.9929726639
 10
750.2902517503
 20
-195.3152595558
 10
750.8932487094
 20
-191.4458225338
 10
751.2560828406
 20
-187.4012311211
 10
751.3772004324
 20
-183.1988048792
  0
SPLINE
  5
FA
330
1F
100
AcDbEntity
  8
0
  6
Continuous
 62
     7
370
    25
100
AcDbSpline
210
0.0
220
0.0
230
1.0
 70
     8
 71
     3
 72
    40
 73
    36
 74
     0
 42
0.00000001
 43
0.00000001
 40
0.0
 40
0.0
 40
0.0
 40
0.0
 40
0.0285700157933292
 40
0.0571409100781263
 40
0.086661134352624
 40
0.1161839168070498
 40
0.1447227685895345
 40
0.1732643378708138
 40
0.2025020436797639
 40
0.2317424744094504
 40
0.2699132790335322
 40
0.3080896469276426
 40
0.347359110105122
 40
0.3866307977874853
 40
0.4253141844886602
 40
0.4639937365553702
 40
0.5038698755284013
 40
0.5437279465308299
 40
0.5664958810738537
 40
0.5892602779262723
 40
0.6125900021050332
 40
0.6359160132889777
 40
0.6587295929138115
 40
0.6815426881996729
 40
0.7051417775569667
 40
0.7287442276070792
 40
0.7558213096700799
 40
0.7829056530922582
 40
0.8107416575727673
 40
0.8385827958935281
 40
0.8777445708610959
 40
0.9169136117226322
 40
0.957183211843451
 40
0.9974521071383717
 40
1.0
 40
1.0
 40
1.0
 40
1.0
 10
561.8725830743805
 20
-161.9721939718431
 30
0.0
 10
561.8785754870944
 20
-163.5544080898051
 30
0.0
 10
561.8905604967814
 20
-166.7188849767908
 30
0.0
 10
561.9882891017714
 20
-171.8557291625168
 30
0.0
 10
562.1477271262484
 20
-177.2484587157755
 30
0.0
 10
562.3751057274853
 20
-182.8165761417409
 30
0.0
 10
562.6661297618718
 20
-188.4423344781208
 30
0.0
 10
563.0233534627117
 20
-194.1260338272378
 30
0.0
 10
563.4549378245172
 20
-199.8959644946871
 30
0.0
 10
564.0195648030508
 20
-206.309681287094
 30
0.0
 10
564.7514556372665
 20
-213.2828962110301
 30
0.0
 10
565.7145705947921
 20
-220.8160664350357
 30
0.0
 10
566.875357566721
 20
-228.2675107489516
 30
0.0
 10
568.2726077226943
 20
-235.5488680716747
 30
0.0
 10
569.9337840976436
 20
-242.5498931796583
 30
0.0
 10
571.9416200169417
 20
-249.2958919407423
 30
0.0
 10
574.3906972271153
 20
-255.7499608843721
 30
0.0
 10
576.9780416913883
 20
-260.9471492407025
 30
0.0
 10
579.5022193438685
 20
-264.9480018102046
 30
0.0
 10
581.7750989933439
 20
-267.9551178507135
 30
0.0
 10
584.3282019724265
 20
-270.7264724721313
 30
0.0
 10
587.1517780865818
 20
-273.2048884194208
 30
0.0
 10
590.2200548051802
 20
-275.3367059991328
 30
0.0
 10
593.5392119417767
 20
-277.1344349007024
 30
0.0
 10
597.1175278819238
 20
-278.5787263460183
 30
0.0
 10
601.1014978644675
 20
-279.715731352215
 30
0.0
 10
605.4355137688763
 20
-280.4680698033096
 30
0.0
 10
610.1191745467119
 20
-280.8061693257533
 30
0.0
 10
614.9069380166914
 20
-280.7155662528676
 30
0.0
 10
620.4072557236866
 20
-280.1582325405461
 30
0.0
 10
626.5196863373493
 20
-278.9729819534888
 30
0.0
 10
633.2134801355094
 20
-277.0134327963638
 30
0.0
 10
639.699356451273
 20
-274.3734927271682
 30
0.0
 10
644.1069996778111
 20
-272.2950484938208
 30
0.0
 10
646.1898614361988
 20
-270.9679663249116
 30
0.0
 10
646.3138060110825
 20
-270.8889958245416
 30
0.0
  0
SPLINE
  5
FB
330
1F
100
AcDbEntity
  8
0
  6
Continuous
 62
     7
370
    25
100
AcDbSpline
210
0.0
220
0.0
230
1.0
 70
     8
 71
     3
 72
    17
 73
    13
 74
     0
 42
0.00000001
 43
0.00000001
 40
0.0
 40
0.0
 40
0.0
 40
0.0
 40
0.027560193264972
 40
0.149361270084189
 40
0.2711433481535951
 40
0.3974688681229537
 40
0.5237603330665414
 40
0.6077745218240751
 40
0.6917815671675743
 40
0.7780984760789652
 40
0.8644094632874237
 40
1.0
 40
1.0
 40
1.0
 40
1.0
 10
566.3550878927248
 20
-132.391208154692
 30
0.0
 10
566.2576850262816
 20
-132.4266167910473
 30
0.0
 10
565.7298144231285
 20
-132.6185123574946
 30
0.0
 10
564.9915015314281
 20
-133.5951831009535
 30
0.0
 10
564.0953227488642
 20
-135.408997771813
 30
0.0
 10
563.3740211492028
 20
-138.0508854842906
 30
0.0
 10
562.8577739665677
 20
-141.1246111579236
 30
0.0
 10
562.5004603359979
 20
-144.3525734413509
 30
0.0
 10
562.2528596558091
 20
-147.5068838727231
 30
0.0
 10
562.0663077686645
 20
-151.0711536878286
 30
0.0
 10
561.9097707163003
 20
-155.7539288013623
 30
0.0
 10
561.8866877018177
 20
-159.6137138691179
 30
0.0
 10
561.8725830743805
 20
-161.9721939718431
 30
0.0
  0
LWPOLYLINE
  5
FC
330
1F
100
AcDbEntity
  8
0
  6
Continuous
 62
     7
370
    25
100
AcDbPolyline
 90
       97
 70
   128
 43
0.0
 10
489.7476913934
 20
-138.296358729
 10
489.6265738016
 20
-134.0939324871
 10
489.2637396704
 20
-130.0493410745
 10
488.6607427113
 20
-126.1799040524
 10
487.8201650498
 20
-122.5021909443
 10
486.7456061685
 20
-119.0319502823
 10
485.4416674935
 20
-115.7840421696
 10
483.9139326904
 20
-112.7723746475
 10
482.1689437541
 20
-110.0098441387
 10
480.2141729952
 20
-107.5082802228
 10
478.0579910422
 20
-105.2783949807
 10
475.7096309972
 20
-103.3297371232
 10
473.1791488984
 20
-101.6706511025
 10
470.4773806588
 20
-100.3082413796
 10
467.6158956646
 20
-99.2483420021
 10
464.6069472339
 20
-98.4954916219
 10
461.4634201459
 20
-98.0529140599
 10
458.1987754661
 20
-97.9225045011
 10
454.8269929043
 20
-98.1048213793
 10
451.362510951
 20
-98.5990839856
 10
447.8201650498
 20
-99.4031758117
 10
444.2151240697
 20
-100.5136536129
 10
440.5628253497
 20
-101.9257621529
 10
436.8789085936
 20
-103.6334545659
 10
433.1791488984
 20
-105.629418251
 10
429.4793892033
 20
-107.9051061853
 10
425.7954724471
 20
-110.4507735236
 10
422.1431737271
 20
-113.2555193275
 10
418.5381327471
 20
-116.307333245
 10
414.9957868459
 20
-119.5931469403
 10
411.5313048926
 20
-123.0988900547
 10
408.1595223308
 20
-126.809550458
 10
404.894877651
 20
-130.7092385328
 10
401.7513505629
 20
-134.7812552158
 10
398.7424021323
 20
-139.0081635067
 10
395.8809171381
 20
-143.3718631351
 10
393.1791488984
 20
-147.8536680693
 10
390.6486667997
 20
-152.4343865326
 10
388.3003067547
 20
-157.0944031851
 10
386.1441248017
 20
-161.8137631203
 10
384.1893540428
 20
-166.5722573142
 10
382.4443651065
 20
-171.3495091643
 10
380.9166303034
 20
-176.1250617448
 10
379.6126916284
 20
-180.8784654062
 10
378.5381327471
 20
-185.5893653444
 10
377.6975550855
 20
-190.2375887626
 10
377.0945581264
 20
-194.8032312545
 10
376.7317239953
 20
-199.266742038
 10
376.6106064035
 20
-203.6090076748
 10
376.7317239953
 20
-207.8114339167
 10
377.0945581264
 20
-211.8560253293
 10
377.6975550855
 20
-215.7254623514
 10
378.5381327471
 20
-219.4031754595
 10
379.6126916284
 20
-222.8734161215
 10
380.9166303034
 20
-226.1213242342
 10
382.4443651065
 20
-229.1329917562
 10
384.1893540428
 20
-231.8955222651
 10
386.1441248017
 20
-234.397086181
 10
388.3003067547
 20
-236.6269714231
 10
390.6486667997
 20
-238.5756292806
 10
393.1791488984
 20
-240.2347153013
 10
395.8809171381
 20
-241.5971250242
 10
398.7424021323
 20
-242.6570244017
 10
401.7513505629
 20
-243.4098747819
 10
404.894877651
 20
-243.8524523439
 10
408.1595223308
 20
-243.9828619027
 10
411.5313048926
 20
-243.8005450245
 10
414.9957868459
 20
-243.3062824182
 10
418.5381327471
 20
-242.5021905921
 10
422.1431737271
 20
-241.3917127909
 10
425.7954724471
 20
-239.9796042509
 10
429.4793892033
 20
-238.2719118379
 10
433.1791488984
 20
-236.2759481528
 10
436.8789085936
 20
-234.0002602185
 10
440.5628253497
 20
-231.4545928802
 10
444.2151240697
 20
-228.6498470763
 10
447.8201650498
 20
-225.5980331588
 10
451.362510951
 20
-222.3122194635
 10
454.8269929043
 20
-218.8064763491
 10
458.1987754661
 20
-215.0958159457
 10
461.4634201459
 20
-211.196127871
 10
464.6069472339
 20
-207.1241111879
 10
467.6158956646
 20
-202.8972028971
 10
470.4773806588
 20
-198.5335032687
 10
473.1791488984
 20
-194.0516983345
 10
475.7096309972
 20
-189.4709798712
 10
478.0579910422
 20
-184.8109632187
 10
480.2141729952
 20
-180.0916032835
 10
482.1689437541
 20
-175.3331090896
 10
483.9139326904
 20
-170.5558572394
 10
485.4416674935
 20
-165.780304659
 10
486.7456061685
 20
-161.0269009976
 10
487.8201650498
 20
-156.3160010594
 10
488.6607427113
 20
-151.6677776412
 10
489.2637396704
 20
-147.1021351493
 10
489.6265738016
 20
-142.6386243657
 10
489.7476913934
 20
-138.296358729
  0
LWPOLYLINE
  5
FD
330
1F
100
AcDbEntity
  8
0
  6
Continuous
 62
     7
370
    25
100
AcDbPolyline
 90
      109
 70
   128
 43
0.0
 10
505.3040405795
 20
-129.3158694989
 10
505.182016678
 20
-124.5435945656
 10
504.816357864
 20
-119.9283532979
 10
504.2083014111
 20
-115.4857622111
 10
503.3599047898
 20
-111.2308536273
 10
502.2740387057
 20
-107.1780248103
 10
500.9543773861
 20
-103.3409892499
 10
499.4053861469
 20
-99.7327302599
 10
497.6323062844
 20
-96.3654570465
 10
495.6411373394
 20
-93.2505633963
 10
493.4386167974
 20
-90.3985891236
 10
491.0321972907
 20
-87.8191844064
 10
488.4300213812
 20
-85.5210771338
 10
485.6408940085
 20
-83.5120433735
 10
482.6742526967
 20
-81.7988810596
 10
479.540135621
 20
-80.3873869913
 10
476.2491476414
 20
-79.2823372175
 10
472.8124244195
 20
-78.487470877
 10
469.2415947389
 20
-78.0054775458
 10
465.5487411569
 20
-77.8379881368
 10
461.746359121
 20
-77.9855693812
 10
457.8473146885
 20
-78.4477219106
 10
453.8648009915
 20
-79.2228819474
 10
449.8122935957
 20
-80.3084265951
 10
445.7035049033
 20
-81.7006827145
 10
441.5523377546
 20
-83.3949393515
 10
437.3728383854
 20
-85.3854636779
 10
433.1791488984
 20
-87.6655203895
 10
428.9854594114
 20
-90.2273944962
 10
424.8059600422
 20
-93.0624174268
 10
420.6547928936
 20
-96.1609963613
 10
416.5460042012
 20
-99.5126466892
 10
412.4934968054
 20
-103.106027487
 10
408.5109831083
 20
-106.9289798912
 10
404.6119386758
 20
-110.9685682413
 10
400.8095566399
 20
-115.2111238489
 10
397.1167030579
 20
-119.6422912487
 10
393.5458733773
 20
-124.2470767731
 10
390.1091501555
 20
-129.0098992852
 10
386.8181621759
 20
-133.9146429014
 10
383.6840451001
 20
-138.9447115219
 10
380.7174037883
 20
-144.0830849867
 10
377.9282764156
 20
-149.3123766665
 10
375.3261005061
 20
-154.6148922935
 10
372.9196809995
 20
-159.9726898334
 10
370.7171604575
 20
-165.3676401951
 10
368.7259915125
 20
-170.7814885745
 10
366.9529116499
 20
-176.1959162223
 10
365.4039204108
 20
-181.5926024293
 10
364.0842590911
 20
-186.9532865176
 10
362.9983930071
 20
-192.2598296292
 10
362.1499963858
 20
-197.4942761019
 10
361.5419399328
 20
-202.6389142257
 10
361.1762811188
 20
-207.6763361738
 10
361.0542572174
 20
-212.5894969049
 10
361.1762811188
 20
-217.3617718381
 10
361.5419399328
 20
-221.9770131059
 10
362.1499963858
 20
-226.4196041927
 10
362.9983930071
 20
-230.6745127765
 10
364.0842590911
 20
-234.7273415935
 10
365.4039204108
 20
-238.5643771539
 10
366.9529116499
 20
-242.1726361439
 10
368.7259915125
 20
-245.5399093573
 10
370.7171604575
 20
-248.6548030075
 10
372.9196809995
 20
-251.5067772802
 10
375.3261005061
 20
-254.0861819974
 10
377.9282764156
 20
-256.3842892699
 10
380.7174037883
 20
-258.3933230303
 10
383.6840451001
 20
-260.1064853442
 10
386.8181621759
 20
-261.5179794125
 10
390.1091501555
 20
-262.6230291863
 10
393.5458733773
 20
-263.4178955268
 10
397.1167030579
 20
-263.899888858
 10
400.8095566399
 20
-264.067378267
 10
404.6119386758
 20
-263.9197970226
 10
408.5109831083
 20
-263.4576444932
 10
412.4934968054
 20
-262.6824844564
 10
416.5460042012
 20
-261.5969398086
 10
420.6547928936
 20
-260.2046836893
 10
424.8059600422
 20
-258.5104270523
 10
428.9854594114
 20
-256.5199027259
 10
433.1791488984
 20
-254.2398460142
 10
437.3728383854
 20
-251.6779719076
 10
441.5523377546
 20
-248.8429489769
 10
445.7035049033
 20
-245.7443700425
 10
449.8122935957
 20
-242.3927197145
 10
453.8648009915
 20
-238.7993389168
 10
457.8473146885
 20
-234.9763865125
 10
461.7463591211
 20
-230.9367981625
 10
465.5487411569
 20
-226.6942425549
 10
469.2415947389
 20
-222.263075155
 10
472.8124244195
 20
-217.6582896307
 10
476.2491476414
 20
-212.8954671186
 10
479.540135621
 20
-207.9907235023
 10
482.6742526967
 20
-202.9606548818
 10
485.6408940085
 20
-197.8222814171
 10
488.4300213812
 20
-192.5929897373
 10
491.0321972907
 20
-187.2904741103
 10
493.4386167974
 20
-181.9326765704
 10
495.6411373394
 20
-176.5377262087
 10
497.6323062844
 20
-171.1238778293
 10
499.4053861469
 20
-165.7094501814
 10
500.9543773861
 20
-160.3127639745
 10
502.2740387057
 20
-154.9520798861
 10
503.3599047898
 20
-149.6455367746
 10
504.2083014111
 20
-144.4110903019
 10
504.816357864
 20
-139.2664521781
 10
505.182016678
 20
-134.22903023
 10
505.3040405795
 20
-129.3158694989
  0
LWPOLYLINE
  5
FE
330
1F
100
AcDbEntity
  8
0
  6
Continuous
 62
     7
370
    25
100
AcDbPolyline
 90
       10
 70
   128
 43
0.0
 10
731.5782105592
 20
-259.9411673906
 10
731.4561866577
 20
-255.1688924573
 10
731.0905278437
 20
-250.5536511895
 10
730.4824713908
 20
-246.1110601027
 10
729.6340747695
 20
-241.8561515189
 10
728.5482086854
 20
-237.8033227019
 10
727.2285473658
 20
-233.9662871416
 10
725.6795561266
 20
-230.3580281515
 10
723.9064762641
 20
-226.9907549381
 10
723.5214170284
 20
-226.3404982909
  0
LWPOLYLINE
  5
FF
330
1F
100
AcDbEntity
  8
0
  6
Continuous
 62
     7
370
    25
100
AcDbPolyline
 90
       42
 70
   128
 43
0.0
 10
608.4574635137
 20
-389.9149650564
 10
609.9582150798
 20
-390.7317832358
 10
613.0923321556
 20
-392.1432773042
 10
616.3833201352
 20
-393.2483270779
 10
619.820043357
 20
-394.0431934184
 10
623.3908730376
 20
-394.5251867496
 10
627.0837266196
 20
-394.6926761586
 10
630.8861086555
 20
-394.5450949143
 10
634.785153088
 20
-394.0829423848
 10
638.7676667851
 20
-393.3077823481
 10
642.8201741809
 20
-392.2222377003
 10
646.9289628733
 20
-390.8299815809
 10
651.0801300219
 20
-389.1357249439
 10
655.2596293911
 20
-387.1452006175
 10
659.4533188781
 20
-384.8651439059
 10
663.6470083651
 20
-382.3032697992
 10
667.8265077343
 20
-379.4682468686
 10
671.977674883
 20
-376.3696679341
 10
676.0864635753
 20
-373.0180176062
 10
680.1389709712
 20
-369.4246368085
 10
684.1214846682
 20
-365.6016844042
 10
688.0205291007
 20
-361.5620960541
 10
691.8229111366
 20
-357.3195404465
 10
695.5157647186
 20
-352.8883730467
 10
699.0865943992
 20
-348.2835875224
 10
702.5233176211
 20
-343.5207650102
 10
705.8143056007
 20
-338.616021394
 10
708.9484226764
 20
-333.5859527735
 10
711.9150639882
 20
-328.4475793087
 10
714.7041913609
 20
-323.2182876289
 10
717.3063672704
 20
-317.9157720019
 10
719.7127867771
 20
-312.5579744621
 10
721.9153073191
 20
-307.1630241003
 10
723.9064762641
 20
-301.7491757209
 10
725.6795561266
 20
-296.3347480731
 10
727.2285473658
 20
-290.9380618661
 10
728.5482086854
 20
-285.5773777778
 10
729.6340747695
 20
-280.2708346662
 10
730.4824713908
 20
-275.0363881935
 10
731.0905278437
 20
-269.8917500697
 10
731.4561866577
 20
-264.8543281216
 10
731.5782105592
 20
-259.9411673906
  0
ARC
  5
100
330
1F
100
AcDbEntity
  8
0
  6
Continuous
 62
     7
370
    25
100
AcDbCircle
 10
435.2634637907
 20
-78.9780414484
 30
0.0
 40
3.440132544473762
100
AcDbArc
 50
113.5991707576
 51
175.0806882848
  0
LWPOLYLINE
  5
101
330
1F
100
AcDbEntity
  8
0
  6
Continuous
 62
     7
370
    25
100
AcDbPolyline
 90
       12
 70
   128
 43
0.0
 10
445.8360031479
 20
-78.6830406586
 10
445.7919886172
 20
-78.2305906448
 10
445.4431864601
 20
-77.3483783504
 10
444.7630725425
 20
-76.5330915971
 10
443.7857506162
 20
-75.8256122672
 10
442.5602276835
 20
-75.2614163284
 10
441.1479565816
 20
-74.8687949209
 10
439.6197544806
 20
-74.6674357217
 10
438.0522518152
 20
-74.6674357217
 10
436.5240497142
 20
-74.8687949209
 10
435.1117786123
 20
-75.2614163284
 10
433.8862556796
 20
-75.8256122672
  0
ENDSEC
  0
SECTION
  2
OBJECTS
  0
DICTIONARY
  5
C
330
0
100
AcDbDictionary
281
     1
  3
ACAD_GROUP
350
D
  3
ACAD_LAYOUT
350
1A
  3
ACAD_MLINESTYLE
350
17
  3
ACAD_PLOTSETTINGS
350
19
  3
ACAD_PLOTSTYLENAME
350
E
  3
ACAD_SCALELIST
350
47
  3
DWGPROPS
350
102
  0
DICTIONARY
  5
D
102
{ACAD_REACTORS
330
C
102
}
330
C
100
AcDbDictionary
281
     1
  0
DICTIONARY
  5
1A
102
{ACAD_REACTORS
330
C
102
}
330
C
100
AcDbDictionary
281
     1
  3
Layout1
350
1E
  3
Layout2
350
26
  3
Model
350
22
  0
DICTIONARY
  5
17
102
{ACAD_REACTORS
330
C
102
}
330
C
100
AcDbDictionary
281
     1
  3
Standard
350
18
  0
DICTIONARY
  5
19
102
{ACAD_REACTORS
330
C
102
}
330
C
100
AcDbDictionary
281
     1
  0
ACDBDICTIONARYWDFLT
  5
E
102
{ACAD_REACTORS
330
C
102
}
330
C
100
AcDbDictionary
281
     1
  3
Normal
350
F
100
AcDbDictionaryWithDefault
340
F
  0
DICTIONARY
  5
47
102
{ACAD_REACTORS
330
C
102
}
330
C
100
AcDbDictionary
281
     1
  3
A0
350
48
  3
A1
350
49
  3
A2
350
4A
  3
A3
350
4B
  3
A4
350
4C
  3
A5
350
4D
  3
A6
350
4E
  3
A7
350
4F
  3
A8
350
50
  3
A9
350
51
  3
B0
350
52
  3
B1
350
53
  3
B2
350
54
  3
B3
350
55
  3
B4
350
56
  3
B5
350
57
  3
B6
350
58
  3
B7
350
59
  3
B8
350
5A
  3
B9
350
5B
  3
C0
350
5C
  3
C1
350
5D
  3
C2
350
5E
  3
C3
350
5F
  3
C4
350
60
  3
C5
350
61
  3
C6
350
62
  3
C7
350
63
  3
C8
350
64
  3
C9
350
65
  3
D0
350
66
  3
D1
350
67
  3
D2
350
68
  0
XRECORD
  5
102
102
{ACAD_REACTORS
330
C
102
}
330
C
100
AcDbXrecord
280
     1
  1
DWGPROPS COOKIE
  2

  3

  4

  6

  7

  8
b.kav
  9

300
=
301
=
302
=
303
=
304
=
305
=
306
=
307
=
308
=
309
=
 40
0.0
 41
2459741.482926736
 42
2459741.48292691
  1

 90
        0
  0
LAYOUT
  5
1E
102
{ACAD_REACTORS
330
1A
102
}
330
1A
100
AcDbPlotSettings
  1

  2
none_device
  4

  6

 40
0.0
 41
0.0
 42
0.0
 43
0.0
 44
0.0
 45
0.0
 46
0.0
 47
0.0
 48
0.0
 49
0.0
140
0.0
141
0.0
142
1.0
143
1.0
 70
   688
 72
     1
 73
     0
 74
     5
  7

 75
    16
147
1.0
148
0.0
149
0.0
100
AcDbLayout
  1
Layout1
 70
     1
 71
     1
 10
0.0
 20
0.0
 11
420.0
 21
297.0
 12
0.0
 22
0.0
 32
0.0
 14
1.0000000000E+20
 24
1.0000000000E+20
 34
1.0000000000E+20
 15
-1.0000000000E+20
 25
-1.0000000000E+20
 35
-1.0000000000E+20
146
0.0
 13
0.0
 23
0.0
 33
0.0
 16
1.0
 26
0.0
 36
0.0
 17
0.0
 27
1.0
 37
0.0
 76
     0
330
1B
  0
LAYOUT
  5
26
102
{ACAD_REACTORS
330
1A
102
}
330
1A
100
AcDbPlotSettings
  1

  2
none_device
  4

  6

 40
0.0
 41
0.0
 42
0.0
 43
0.0
 44
0.0
 45
0.0
 46
0.0
 47
0.0
 48
0.0
 49
0.0
140
0.0
141
0.0
142
1.0
143
1.0
 70
   688
 72
     1
 73
     0
 74
     5
  7

 75
    16
147
1.0
148
0.0
149
0.0
100
AcDbLayout
  1
Layout2
 70
     1
 71
     2
 10
0.0
 20
0.0
 11
0.0
 21
0.0
 12
0.0
 22
0.0
 32
0.0
 14
0.0
 24
0.0
 34
0.0
 15
0.0
 25
0.0
 35
0.0
146
0.0
 13
0.0
 23
0.0
 33
0.0
 16
1.0
 26
0.0
 36
0.0
 17
0.0
 27
1.0
 37
0.0
 76
     0
330
23
  0
LAYOUT
  5
22
102
{ACAD_REACTORS
330
1A
102
}
330
1A
100
AcDbPlotSettings
  1

  2
none_device
  4
Letter_(8.50_x_11.00_Inches)
  6

 40
6.35
 41
6.35
 42
6.35000508
 43
6.35000508
 44
215.9
 45
279.4
 46
0.0
 47
0.0
 48
0.0
 49
0.0
140
0.0
141
0.0
142
1.0
143
1.0
 70
  1712
 72
     1
 73
     0
 74
     0
  7

 75
     0
147
1.0
148
0.0
149
0.0
100
AcDbLayout
  1
Model
 70
     1
 71
     0
 10
0.0
 20
0.0
 11
279.4
 21
215.9
 12
0.0
 22
0.0
 32
0.0
 14
0.0
 24
0.0
 34
0.0
 15
279.4
 25
215.9
 35
0.0
146
0.0
 13
0.0
 23
0.0
 33
0.0
 16
1.0
 26
0.0
 36
0.0
 17
0.0
 27
1.0
 37
0.0
 76
     0
330
1F
331
29
  0
MLINESTYLE
  5
18
102
{ACAD_REACTORS
330
17
102
}
330
17
100
AcDbMlineStyle
  2
Standard
 70
     0
  3

 62
   256
 51
90.0
 52
90.0
 71
     2
 49
0.5
 62
   256
  6
BYLAYER
 49
-0.5
 62
   256
  6
BYLAYER
  0
ACDBPLACEHOLDER
  5
F
102
{ACAD_REACTORS
330
E
102
}
330
E
  0
SCALE
  5
48
102
{ACAD_REACTORS
330
47
102
}
330
47
100
AcDbScale
 70
     0
300
1:1
140
1.0
141
1.0
290
     1
  0
SCALE
  5
49
102
{ACAD_REACTORS
330
47
102
}
330
47
100
AcDbScale
 70
     0
300
1:2
140
1.0
141
2.0
290
     0
  0
SCALE
  5
4A
102
{ACAD_REACTORS
330
47
102
}
330
47
100
AcDbScale
 70
     0
300
1:4
140
1.0
141
4.0
290
     0
  0
SCALE
  5
4B
102
{ACAD_REACTORS
330
47
102
}
330
47
100
AcDbScale
 70
     0
300
1:5
140
1.0
141
5.0
290
     0
  0
SCALE
  5
4C
102
{ACAD_REACTORS
330
47
102
}
330
47
100
AcDbScale
 70
     0
300
1:8
140
1.0
141
8.0
290
     0
  0
SCALE
  5
4D
102
{ACAD_REACTORS
330
47
102
}
330
47
100
AcDbScale
 70
     0
300
1:10
140
1.0
141
10.0
290
     0
  0
SCALE
  5
4E
102
{ACAD_REACTORS
330
47
102
}
330
47
100
AcDbScale
 70
     0
300
1:16
140
1.0
141
16.0
290
     0
  0
SCALE
  5
4F
102
{ACAD_REACTORS
330
47
102
}
330
47
100
AcDbScale
 70
     0
300
1:20
140
1.0
141
20.0
290
     0
  0
SCALE
  5
50
102
{ACAD_REACTORS
330
47
102
}
330
47
100
AcDbScale
 70
     0
300
1:30
140
1.0
141
30.0
290
     0
  0
SCALE
  5
51
102
{ACAD_REACTORS
330
47
102
}
330
47
100
AcDbScale
 70
     0
300
1:40
140
1.0
141
40.0
290
     0
  0
SCALE
  5
52
102
{ACAD_REACTORS
330
47
102
}
330
47
100
AcDbScale
 70
     0
300
1:50
140
1.0
141
50.0
290
     0
  0
SCALE
  5
53
102
{ACAD_REACTORS
330
47
102
}
330
47
100
AcDbScale
 70
     0
300
1:100
140
1.0
141
100.0
290
     0
  0
SCALE
  5
54
102
{ACAD_REACTORS
330
47
102
}
330
47
100
AcDbScale
 70
     0
300
2:1
140
2.0
141
1.0
290
     0
  0
SCALE
  5
55
102
{ACAD_REACTORS
330
47
102
}
330
47
100
AcDbScale
 70
     0
300
4:1
140
4.0
141
1.0
290
     0
  0
SCALE
  5
56
102
{ACAD_REACTORS
330
47
102
}
330
47
100
AcDbScale
 70
     0
300
8:1
140
8.0
141
1.0
290
     0
  0
SCALE
  5
57
102
{ACAD_REACTORS
330
47
102
}
330
47
100
AcDbScale
 70
     0
300
10:1
140
10.0
141
1.0
290
     0
  0
SCALE
  5
58
102
{ACAD_REACTORS
330
47
102
}
330
47
100
AcDbScale
 70
     0
300
100:1
140
100.0
141
1.0
290
     0
  0
SCALE
  5
59
102
{ACAD_REACTORS
330
47
102
}
330
47
100
AcDbScale
 70
     0
300
1/128" = 1'-0"
140
0.0078125
141
12.0
290
     0
  0
SCALE
  5
5A
102
{ACAD_REACTORS
330
47
102
}
330
47
100
AcDbScale
 70
     0
300
1/64" = 1'-0"
140
0.015625
141
12.0
290
     0
  0
SCALE
  5
5B
102
{ACAD_REACTORS
330
47
102
}
330
47
100
AcDbScale
 70
     0
300
1/32" = 1'-0"
140
0.03125
141
12.0
290
     0
  0
SCALE
  5
5C
102
{ACAD_REACTORS
330
47
102
}
330
47
100
AcDbScale
 70
     0
300
1/16" = 1'-0"
140
0.0625
141
12.0
290
     0
  0
SCALE
  5
5D
102
{ACAD_REACTORS
330
47
102
}
330
47
100
AcDbScale
 70
     0
300
3/32" = 1'-0"
140
0.09375
141
12.0
290
     0
  0
SCALE
  5
5E
102
{ACAD_REACTORS
330
47
102
}
330
47
100
AcDbScale
 70
     0
300
1/8" = 1'-0"
140
0.125
141
12.0
290
     0
  0
SCALE
  5
5F
102
{ACAD_REACTORS
330
47
102
}
330
47
100
AcDbScale
 70
     0
300
3/16" = 1'-0"
140
0.1875
141
12.0
290
     0
  0
SCALE
  5
60
102
{ACAD_REACTORS
330
47
102
}
330
47
100
AcDbScale
 70
     0
300
1/4" = 1'-0"
140
0.25
141
12.0
290
     0
  0
SCALE
  5
61
102
{ACAD_REACTORS
330
47
102
}
330
47
100
AcDbScale
 70
     0
300
3/8" = 1'-0"
140
0.375
141
12.0
290
     0
  0
SCALE
  5
62
102
{ACAD_REACTORS
330
47
102
}
330
47
100
AcDbScale
 70
     0
300
1/2" = 1'-0"
140
0.5
141
12.0
290
     0
  0
SCALE
  5
63
102
{ACAD_REACTORS
330
47
102
}
330
47
100
AcDbScale
 70
     0
300
3/4" = 1'-0"
140
0.75
141
12.0
290
     0
  0
SCALE
  5
64
102
{ACAD_REACTORS
330
47
102
}
330
47
100
AcDbScale
 70
     0
300
1" = 1'-0"
140
1.0
141
12.0
290
     0
  0
SCALE
  5
65
102
{ACAD_REACTORS
330
47
102
}
330
47
100
AcDbScale
 70
     0
300
1-1/2" = 1'-0"
140
1.5
141
12.0
290
     0
  0
SCALE
  5
66
102
{ACAD_REACTORS
330
47
102
}
330
47
100
AcDbScale
 70
     0
300
3" = 1'-0"
140
3.0
141
12.0
290
     0
  0
SCALE
  5
67
102
{ACAD_REACTORS
330
47
102
}
330
47
100
AcDbScale
 70
     0
300
6" = 1'-0"
140
6.0
141
12.0
290
     0
  0
SCALE
  5
68
102
{ACAD_REACTORS
330
47
102
}
330
47
100
AcDbScale
 70
     0
300
1'-0" = 1'-0"
140
12.0
141
12.0
290
     0
  0
ENDSEC
  0
EOF
